Cifra Club

When A Womans Fed Up

R. Kelly

Cifra: Principal (violão e guitarra)
Selo Cifra Club: esta cifra foi revisada para atender aos critérios oficiais da nossa Equipe de Qualidade.
tom: Dm
[Main Riff] This is straight from the piano
   Gm7~                                  Dm~
E|-3-------------15-----------------|-----5------------------5-----------|
B|-3-------------15-----------------|-----6------------------6-----------|
G|-3-------------15-----------------|-----7------------------7-----------|
D|-5-------------17----5-7-8-7-5-3--|-----7------------------10----------|
A|-5-------------17----x-x-x-x-x-x--|-----5------------------0----5-8----|
E|-3--3-3-1-3----15----3-5-6-5-3-1--|-----5-----10-10-8-10---------------|

[Main Riff] Alternative (sounds better)
   Gm7~                                  Dm~
E|-3-------------3-----------------|-----5------------------5-----------|
B|-3-------------3-----------------|-----6------------------6-----------|
G|-3-------------3-----------------|-----7------------------7-----------|
D|-5--5-5-3-5----5----5-7-8-7-5----|-----7------------------0-----------|
A|-5----------------------------8--|-----5-5-5-3-5----------0----5-8----|
E|-3-------------------------------|-----5------------------------------|
Outros vídeos desta música
    18 exibições
      • ½ Tom
      • Am
      • Bbm
      • Bm
      • Cm
      • C#m
      • Dm
      • Ebm
      • Em
      • Fm
      • F#m
      • Gm
      • G#m
    • Adicionar à lista

    Afinação da cifra

    Afinador online

      0 comentários

      Ver todos os comentários

      Conseguiu tocar?

      0Tocaram0Ainda não

      Grave um vídeo tocando When A Womans Fed Up e nos envie!

      Toque também

      1. Imagem do artista Keith SweatMake It Last Forever Keith Sweat
      2. Imagem do artista JodeciFreakin You Jodeci
      3. Imagem do artista JoeI Wanna Know Joe
      4. Imagem do artista JaheimFinding My Way Back Jaheim

      Entre para o Cifra Club PRO

      Tenha acesso a benefícios exclusivos no App e no Site

      • Chega de anúncios

      • Badges exclusivas

      • Mais recursos no app do Afinador

      • Atendimento Prioritário

      • Aumente seu limite de lista

      • Ajude a produzir mais conteúdo

      Cifra Club Pro

      Aproveite o Cifra Club com benefícios exclusivos e sem anúncios
      Cifra Club Pro
      Aproveite o Cifra Club com benefícios exclusivos e sem anúncios
      OK