Cifra Club

Agora Chora

Rabo de Vaca

Cifra: Principal (violão e guitarra)
Tom: B
Intro:
       G#m             E      B         G#m          E      B F#
E|------------------------7-9--------------------------------------
B|----9-10-9---------9-10-----10-9-----9-10---------7--------------
G|------------9-11--------------------------6-10-------7--9--------
D|-----------------------------------------------------------9-----
A|-----------------------------------------------------------------
E|-----------------------------------------------------------------

       G#m          E     B F#
E|--------------------------------
B|----9-10---------7--------------
G|---------6-10-------7--9--------
D|--------------------------9-----
A|--------------------------------
E|--------------------------------

 G#m    C#m7                       F#
Sei     que nada vai fazer você voltar
 B                          E
Mas por amor eu tenho que tentar

E|-------------------------
B|-------------------------
G|---6h7p6-----------------
D|----------7--4-----------
A|----------------5--------
E|-------------------7-----

 C#m7                       F#/A#
Eu sei que não confia mais em mim
      G#m
E eu mereço...
   E               F#       D#m7             G#m
...toda a sua indiferença, o desprezo em seu olhar
 E                 F#        G#m
Mas ainda há tempo pra recomeçar
E                    F#            D#m7          G#m
Reconheço os meus defeitos, mas na vida quem não tem?
E                  F#        G#m
É só seu o meu amor, de mais ninguém

E5                       F#5               G#m5
Você sabe que eu te amo e pra sempre vou te amar
  E5                          F#5             B5 A#m5    G#m5
Mas tomei a decisão de te esquecer de vez, vai ser melhor assim
G#m5 F#5 D#m5  E5        D#
Pois já te    dei chance demais

Refrão:
  G#m            C#m7                             F#
Agora chora. E vai sentir na pele tudo o que eu passei
 A                               D (entra o solinho do início)
Nas madrugadas que sozinha te esperei
      C#m7                           F#
Já suportei demais, não quero mais sofrer

  G#m          C#m7                            F#
Agora chora e prova um pouco do sabor da solidão
       A                       D (entra o solinho do início)
O meu amor já escapou das tuas mãos
         C#m7                   F#/A#
Agora é tarde pra você se arrepender
    G#m
Agora chora...

Solo:
           E                D#m7                  C#m7     F#     G#m
E|------------------------------------------------------------------------
B|------------------------------------------7b9-7-7-5-7--5-7-5-3-2--14----
G|-------7h9-7b9-7-6-7--------4-6b7-6-4-6---------------------------------
D|---7/9-----------------6/7----------------------------------------------
A|------------------------------------------------------------------------
E|------------------------------------------------------------------------

              E                          D#m7                C#m7        G#m
E|--------10-12-10b12-10-9-10--------7-9-9b10-9-7-7-------5-7b9-7-5-7--5-4-2--/14---
B|--10/12-----------------------9/10------------------7/9---------------------------
G|----------------------------------------------------------------------------------
D|----------------------------------------------------------------------------------
A|----------------------------------------------------------------------------------
E|----------------------------------------------------------------------------------

E               F#       D#m7             G#m
Toda a sua indiferença, o desprezo em seu olhar
E                  F#        G#m
Mas ainda há tempo pra recomeçar
E                    F#            D#m7          G#m
Reconheço os meus defeitos, mas na vida quem não tem?
E                  F#        G#m
É só seu o meu amor, de mais ninguém

(Refrão)

E5                       F#5               G#m5
Você sabe que eu te amo e pra sempre vou te amar
E5                          F#5             B5 A#m5    G#m5
Mas tomei a decisão de te esquecer de vez, vai ser melhor assim
G#m5 F#5 D#m5  E5        D#
Pois já te    dei chance demais

  G#m            C#m7                             F#
Agora chora, e vai sentir na pele tudo o que eu passei
 A                               D (entra o solinho do início)
Nas madrugadas que sozinha te esperei
      C#m7                           F#
Já suportei demais não quero mais sofrer

  G#m          C#m7                            F#
Agora chora e prova um pouco do sabor da solidão
       A                       D (entra o solinho do início)
O meu amor já escapou das tuas mãos
         C#m7                   F#/A#
Agora é tarde pra você se arrepender
    G#m
Agora chora...
exibições 1.047
Acordes para:
    Composição: Aviões do Forró Colaboração e revisão:
    • sandro roberto

    0 comentários

    mostrar mais comentários

    Conseguiu tocar?

    0 tocaram 0 ainda não

    Grave um vídeo tocando Agora Chora e mande pra gente!

    00:00 / 00:00
    outros vídeos desta música
    repetir qualidade Automático
    Outros vídeos desta música
    00:00 / 00:00
    Automático
    OK