Cifra Club

Weak Would Be Me Flinching

Race The Sun

Cifra: Principal (violão e guitarra)
tom: Db
What a great song.


Intro
e|------------------------------------------------------------------------------------|
B|------------------------------------------------------------------------------------|
G|-------12-----------------------12--------------------------------------------------|
D|--------13/12/13----------------13/12/13------------13------------------------------|
A|-------------------13--11-------------------13--11----------------------------------|
D|------------------------------------------------------------------------------------|
   continue intro throughout

Verse
e|-----------------------------------|
B|-----------------------------------|
G|-----------------------------------|
D|-6-6------X 7----666666666666666---|
A|-6-6--------------666666666666666--|
D|-6-6--------------666666666666666--|
pm .  .                  . . . . . . . . . . . . .

Prechorus
e|----------------------------------------------------------------------------------------------------------------------------|
B|----------------------------------------------------------------------------------------------------------------------------|
G|----------------------------------------------------------------------------------------------------------------------------|
D|-10--10/13-13----6-6-6-6/8\6----10--10/13-13----6-6-6-6/8\6----10--10/13-13----6-6-6-6/8\6-----10--10/13-13----6-6-6-6/8\6--|
A|-10--10/13-13----6-6-6-6/8\6----10--10/13-13----6-6-6-6/8\6----10--10/13-13----6-6-6-6/8\6-----10--10/13-13----6-6-6-6/8\6--|
D|-10--10/13-13----6-6-6-6/8\6----10--10/13-13----6-6-6-6/8\6----10--10/13-13----6-6-6-6/8\6-----10--10/13-13----6-6-6-6/8\6--|

Verse 2
e|----------------------------------------------------------------------------------------------------------------|
B|----------------------------------------------------------------------------------------------------------------|
G|----------------------------------------------------------------------------------------------------------------|
D|--6-6-6-6--x4----66--66--66--666-10-10-8-8-66--66-66-666-10-10-8-8-66--66--66--666-10-10-8-8-6666666666666666---|
A|--6-6-6-6---------66--66--66--666-10-10-8-8-66--66-66-666-10-10-8-8-66--66--66--666-10-10-8-8-6666666666666666--|
D|--6-6-6-6---------66--66--66--666-10-10-8-8-66--66-66-666-10-10-8-8-66--66--66--666-10-10-8-8-6666666666666666--|
pm  .  .  .  .

Prechorus
e|----------------------------------------------------------------------------------------------------------------------------|
B|----------------------------------------------------------------------------------------------------------------------------|
G|----------------------------------------------------------------------------------------------------------------------------|
D|-10--10/13-13----6-6-6-6/8\6----10--10/13-13----6-6-6-6/8\6----10--10/13-13----6-6-6-6/8\6-----10--10/13-13----6-6-6-6/8\6--|
A|-10--10/13-13----6-6-6-6/8\6----10--10/13-13----6-6-6-6/8\6----10--10/13-13----6-6-6-6/8\6-----10--10/13-13----6-6-6-6/8\6--|
D|-10--10/13-13----6-6-6-6/8\6----10--10/13-13----6-6-6-6/8\6----10--10/13-13----6-6-6-6/8\6-----10--10/13-13----6-6-6-6/8\6--|

Chorus
e|------------------------------------------------|
B|------------------------------------------------|
G|------------------------------------------------|
D|---10-----8-8-8-----1----6-6-6------------------|  x2
A|---10-----8-8-8-----1----6-6-6------------------|
D|---10-----8-8-8-----1----6-6-6------------------|
pm             .                   ..

Verse 3
e|----------------------------------------------------------------------------------------------------------------|
B|----------------------------------------------------------------------------------------------------------------|
G|----------------------------------------------------------------------------------------------------------------|
D|--6-6-6-6--x-4---66--66--66--666-10-10-8-8-66--66-66-666-10-10-8-8-66--66--66--666-10-10-8-8-6666666666666666---|
A|--6-6-6-6---------66--66--66--666-10-10-8-8-66--66-66-666-10-10-8-8-66--66--66--666-10-10-8-8-6666666666666666--|
D|--6-6-6-6---------66--66--66--666-10-10-8-8-66--66-66-666-10-10-8-8-66--66--66--666-10-10-8-8-6666666666666666--|
pm  .  .  .  .            ..    ..    ..    . . .  .    .   .  .  ..    ..   ..   ...    .    .  .  .   ..    ..    ..

Prechorus
e|----------------------------------------------------------------------------------------------------------------------------|
B|----------------------------------------------------------------------------------------------------------------------------|
G|----------------------------------------------------------------------------------------------------------------------------|
D|-10--10/13-13----6-6-6-6/8\6----10--10/13-13----6-6-6-6/8\6----10--10/13-13----6-6-6-6/8\6-----10--10/13-13----6-6-6-6/8\6--|
A|-10--10/13-13----6-6-6-6/8\6----10--10/13-13----6-6-6-6/8\6----10--10/13-13----6-6-6-6/8\6-----10--10/13-13----6-6-6-6/8\6--|
D|-10--10/13-13----6-6-6-6/8\6----10--10/13-13----6-6-6-6/8\6----10--10/13-13----6-6-6-6/8\6-----10--10/13-13----6-6-6-6/8\6--|

Chorus
e|----------------------------------------------------------------|
B|----------------------------------------------------------------|
G|----------------------------------------------------------------|
D|---10-----8-8-8-----1----6-6-6----x4----------------------------|
A|---10-----8-8-8-----1----6-6-6----------------------------------|
D|---10-----8-8-8-----1----6-6-6----------------------------------|
pm             .                    .

Solo
e|----------------------------------------------------------------------------------End On--|
B|-------------------------------------------------------------------------------------16---|
G|*|
D|--------13----13--------11----11-------10---10--------8----8-------------------13---------|
A|-----13---------------11--------------10--------------8---------------------------13------|
D|------------------------------------------------------------------------------------------|

Chorus
e|----------------------------------------------------------------|
B|----------------------------------------------------------------|
G|----------------------------------------------------------------|
D|---10-----8-8-8-----1----6-6-6----x8----------------------------|
A|---10-----8-8-8-----1----6-6-6----------------------------------|
D|---10-----8-8-8-----1----6-6-6----------------------------------|
pm             .                    .


Listen to match rhythm
00:00 / 00:00
Outros vídeos desta música
Repetir
Outros vídeos desta música
Composição de Race the Sun
182 exibições
    • ½ Tom
    • A
    • Bb
    • B
    • C
    • Db
    • D
    • Eb
    • E
    • F
    • F#
    • G
    • Ab
  • Adicionar à lista

    0 comentários

    Ver todos os comentários

    Conseguiu tocar?

    0 Tocaram 0 Ainda não

    Grave um vídeo tocando Weak Would Be Me Flinching e nos envie!

    Entre para oCifra Club PRO

    Tenha acesso a benefícios exclusivos no App e no Site

    • Chega de anúncios

    • Prioridade de compra em lançamentos

    • Mais recursos no app do Afinador

    • Atendimento Prioritário

    • Descontos nos produtos Cifra Club

    • Ajude a produzir mais conteúdo

    00:00 / 00:00

    Cifra Club Pro

    Aproveite o Cifra Club com benefícios exclusivos e sem anúncios
    Cifra Club Pro
    Aproveite o Cifra Club com benefícios exclusivos e sem anúncios
    OK