Notificações Amigos pendentes

      Radiohead

      Falling Away With You

      537 exibições
      Tom: C
      (intro)
      
      
      |-------8-------8-----------8----------8---------8------------8------------8----------8---
      |-----------------------------------------------------------------------------------------
      |--5-------5--------5------------5---------5----------5-------------5-----------5---------
      |-----------------------------------------------------------------------------------------
      |-----------------------------------------------------------------------------------------
      |-----------------------------------------------------------------------------------------
      
      
      (verse 1 - 4x)
      
      |------------------|--------------------------------------------------------------|---------------
      |--5---6-----8-----|-----------13---------------12---------10--------10-----------|-10--8---6-----
      |------------------|--------------------------------------------------------------|---------------
      |------------------|--------------------------------------------------------------|---------------
      |--3---5-----7-----|----/-12--------12----10-------10-----8----8--------8---------|--8---7---5----
      |------------------|--------------------------------------------------------------|---------------
      
      
      |----------------------------------------------------------------------------1-----------------------
      |---5--------5----------------------------------------5----3----1------------1------3-/-5-------5----
      |----------------------------------------------------------------------------------2-----------------
      |-----------------------4----4----5--------5---------------------------------------------------------
      |---3---3-------3-------------------------------------3----2----0--0-------------------------3-----3-
      |-----------------------3----4----5-----5-----5------------------------------------------------------
      
      
      (chorus)  A  Dm/A   (4x)
                A  Am  F  G  C
      
      (verse 2 - 4x)
      
      |-----------------------------------------------------------------------------------------------
      |-----------------------------------------------------------------------------------------------
      |-----------------------------------------------------------------------------------------------
      |---2--3--5-----10--10-----9---9-----7------7---------7---5---3--------2--2---------------------
      |---3--5--7-----12--12----10--10----8---8----8--------8---7---5--------3--3------2---2--3-----5-
      |-------------------------------------------------------------------------------3--4--5---3---3-
      
      
      |-----------------------------------------------------------------
      |---------------------------------5----3--------------------------
      |---------------------2-----2-------------------------5-----------
      |---2---2---2--------3----3----2----0----------------2------------
      |---3---2---0----------------------------------------3------------
      |---------------------1-------------------------------------------
      
      
      (interlude - use loads of distortion for this)
      
      (guitar 1)
      
      |---------|---------------|-------------|-----|-----------------|
      |---------|---------------|-------------|-----|-----------------|
      |---------|---------------|-------------|-----|-----------------|
      |-7-------|-7---6---9-----|--10---9---7-|-7---|--7-------6--7---|
      |---------|---------------|-------------|-----|-----------------|
      |---------|---------------|-------------|-----|-----------------|
      
      
      (guitar 2)
      
      |---------|----------------|------------|-----|-----------------|
      |---------|----------------|------------|-----|-----------------|
      |---------|----------------|------------|-----|-----------------|
      |---------|----------------|------------|-----|-----------------|
      |---------|----------------|------------|-----|-----------------|
      |-1-------|-0--------------|--5---------|--1--|--10-------------|
      
      
      (guitar 1)
      
      |------------|---------|-----------|-------|
      |------------|---------|-----------|-------|
      |------------|---------|-----------|-------|
      |-7------6---|-7-------|--7--------|---7---|
      |------------|---------|-----------|-------|
      |------------|---------|-----------|-------|
      
      
      (guitar 2)
      
      |------------|---------|-----------|-----|
      |------------|---------|-----------|-----|
      |------------|---------|-----------|-----|
      |------------|---------|-----------|-----|
      |------------|---------|-----------|-----|
      |-0----------|-5---4-5-|-5---4-5-5-|--5--|
      
      
      (hysteria)
      (main riff)
      
      E |---------------------------------------------------------------------------|
      B |-----12h13-12----------12h13-12----------12h13-12---------12h13-12---------|
      G |-14-----------14---12-----------14--10------------14--9------------14------|
      D |---------------------------------------------------------------------------|x2
      A |-12----------------11---------------08----------------7--------------------|
      E |---------------------------------------------------------------------------|
      
      
      (chorus)
      
      E |-----------------|
      B |-----------------|
      G |---5-----7-------|
      D |---5--5--7--7----|
      A |---3--5--5--7----|
      E |------3-----5----|
      
      
      (play the Main Riff after the chorus)
      
      (verse 2)
      (chorus)
      (interlude)
      
      E |------|
      B |------|
      G |------|
      D |------|
      A |--7/1-|
      E |------|
      
      
      E |-----------------------------------|
      B |-----------------------------------|
      G |-----------------------------------|
      D |-----------------------------------|x3
      A |-0-5--5-7--5--5-4-3--3-2-1-3-0-----|
      E |-----------------------------------|
      
      
      (on the fourth time play)
      
      E |-------------------------------------|
      B |-------------------------------------|
      G |-------------------------------------|
      D |----------5--5-----5-5-5-----5--7----|
      A |--0-5--7---------7---------7---------|
      E |-------------------------------------|
      
      
      (solo)
      
      E |--------12-12-------13-13-------13-13-12-12----12-|-----12-12-----13-13-----13-13-12-12---|
      B |--10-10-------10-10-------10-10-------------10----|-9-9-------9-9-------9-9-------------9-|
      G |--------------------------------------------------|---------------------------------------|
      D |--------------------------------------------------|---------------------------------------|
      A |--------------------------------------------------|---------------------------------------|
      E |--------------------------------------------------|---------------------------------------|
      
      
      E |--------12-12-------17-17-------13-13-------12-12-|
      B |--10-10-------10-10-------10-10-------10-10-------|
      G |--------------------------------------------------|
      D |--------------------------------------------------|
      A |--------------------------------------------------|
      E |--------------------------------------------------|
      
      
      E |------12-12-----13-13------13-13-12-12----12-|------12-12-----13-13-----13-13-12-12----12-|
      B |-10-10-----10-10-----10-10-------------10----|-10-10-----10-10-----10-10-------------10---|
      G |---------------------------------------------|--------------------------------------------|
      D |---------------------------------------------|--------------------------------------------|
      A |---------------------------------------------|--------------------------------------------|
      E |---------------------------------------------|--------------------------------------------|
      
      
      E |-----12-12-----13-13-----13-13-12-12---|--------12-12-------17-17-------13-13-------12---|
      B |-9-9-------9-9-------9-9-------------9-|--10-10-------10-10-------10-10-------10-10------|
      G |---------------------------------------|-------------------------------------------------|
      D |---------------------------------------|-------------------------------------------------|
      A |---------------------------------------|-------------------------------------------------|
      E |---------------------------------------|-------------------------------------------------|
      
      
      E |-13----------12----------10---------8---------|
      B |----10-10-10----------------------------------|
      G |----------------10-10-10----9-9-9-----7-7-7---|
      D |----------------------------------------------|
      A |----------------------------------------------|
      E |----------------------------------------------|
      
      
      (2nd part of solo)
      
      
      E |--8-------8-7----7------7-7-8/10--------10-8-7h8------10-8-7h8------8-7----7--------------
      B |----8---------10---8-------------10--------------8-------------8--------10---8------------
      G |------9--------------7--------------10-------------9-------------9-------------7----------
      D |------------------------------------------------------------------------------------------
      A |------------------------------------------------------------------------------------------
      E |------------------------------------------------------------------------------------------
      
      
      E |--7-8/10------10-8-7h8--------------------------------------------------------------------|
      B |-----------------------8------------------------------------------------------------------|
      G |---------10--------------9----------------------------------------------------------------|
      D |------------------------------------------------------------------------------------------|
      A |------------------------------------------------------------------------------------------|
      E |------------------------------------------------------------------------------------------|
      
      
      (chorus)
      
      E |---------------------------------|
      B |---------------------------------|
      G |---------------------------------|
      D |---------------------------------|x6
      A |-0-5--5-7--5---------------------|
      E |--------------10-9-8--8-7-6-7/0--|
      

      Comentários 0

      140 .
      140 cancelar

      conseguiu tocar?

      covers

      Grave um vídeo tocando Falling Away With You e mande pra gente!

      Ex.: http://www.youtube.com/watch?v=0IvSvIwGdwk
      ver covers de outras músicas »
      0:00 / 0:00

      Capítulos

        1 versão de violão dificuldade exibições contribuição e correção
        1 versão de guitarra dificuldade exibições contribuição e correção
        1 versão de cavaco dificuldade exibições contribuição e correção
        1 versão de teclado dificuldade exibições contribuição e correção
        play/pausefechar subir/descer velocidade
        6ª corda E5ª corda A4ª corda D3ª corda G2ª corda B1ª corda E
          acordes
          publicidade
          fechar
          ok