Cifra Club

I Promise

Radiohead

Cifra: Principal
exibições 6.043
Tom: E
[Intro] riff 1

Riff 1

E|-----------------------------------------------|
B|-----------------------------------------------|
G|-----------------------------------------------|
D|-----------------------------------------------|
A|---11---9-----11--9------11-9-9-9--------------|
E|----0---0--0--0---0--0----0-0-0-0--------------|

E|-----------------------------------------------|
B|-----------------------------------------------|
G|-----------------------------------------------|
D|-----------------------------------------------|
A|---12---11----12--11-----12-11-11-11-----------|
E|----0---0--0--0---0--0----0-0--0--0------------|

E|-----------------------------------0-----------|
B|-----------------------------------0-----------|
G|-----------------------------------9-----------| (2x)
D|-----------------------------------9-----------|
A|---9---7-----9---7-------9-7-7-7---7-----------|
E|---0---0--0--0---0--0----0-0-0-0---0-----------|

[Verso] riff 1 x 2
        riff 2 x 2
Riff 1

E|-----------------------------------------------|
B|-----------------------------------------------|
G|-----------------------------------------------|
D|-----------------------------------------------|
A|---11---9-----11--9------11-9-9-9--------------|
E|----0---0--0--0---0--0----0-0-0-0--------------|

E|-----------------------------------------------|
B|-----------------------------------------------|
G|-----------------------------------------------|
D|-----------------------------------------------|
A|---12---11----12--11-----12-11-11-11-----------|
E|----0---0--0--0---0--0----0-0--0--0------------|

E|-----------------------------------0-----------|
B|-----------------------------------0-----------|
G|-----------------------------------9-----------| (2x)
D|-----------------------------------9-----------|
A|---9---7-----9---7-------9-7-7-7---7-----------|
E|---0---0--0--0---0--0----0-0-0-0---0-----------|

Riff 2

E|-----------------------------------0-----------|
B|-----------------------------------0-----------|
G|-----------------------------------9-----------|  (2x)
D|-----------------------------------9-----------|
A|---6--6--6--6--6---7---9------9-9--7-----------|
E|---7--7--7--7--7---7---7------0-0--0-----------|

I won't run away no more
I promise
Even when I get bored 
I promise
Even when you lock me out
I promise
I'll say my prayers every night
I promise

I know which side I'm spread
I promise
The tantrums and the chitty chats
I promise
Even when the ship is wrecked 
I promise
Tie me to the rotten deck
I promise

loud break
Improvise over the main theme with emphasis on b,c#,d#

I won't tun away no more
I promise
Even when I get bored
I promise
Even when the ship is wrecked
I promise
Tie me to the rotten deck
I promise

loud break
Improvise over the main theme with emphasis on b,c#,d#

I won't run away no more
I promise
Acordes para:
    Colaboração e revisão:
    • Felipe Rodrigues
    • Rafael Silva

    0 comentários

      mostrar mais comentários

      Conseguiu tocar?

      0tocaram0ainda não

      Grave um vídeo tocando I Promise e mande pra gente!

      00:00 / 00:00
      outros vídeos desta música
      repetirqualidadeautomática
      Outro vídeos desta música
        00:00 / 00:00
        automática
        OK