Cifra Club

Just

Radiohead

Tab de baixo: Principal
Intro
------------------------------------------------------------------------------
------------------------------------------------------------------------------
--3-3-33-66-6-66-5-5-55-88-8-88-----------------------------------------------
------------------------------------------------------------------------------
                                                                              
verse
------------------------------------------------------------------------------
------------------------------------------------------------------------------
-----------------656-8-10-12\------------------656-8-10-8\--------------------
-5-5-55-54-4-44-4--------------5-5-55-54-4-44-4-------------------------------
                                                                              
prechorus
------------------------------------------------------------------------------
------------------------------------------------------------------------------
-----56865-------35635--------------------------------------------------------
-5-7---------45----------353-242-1----------------------------------------------
                                                                              

 chorus                                                                            
------------------------------------------------------------------------------
------------------------------------------------------------------------------
--3-3-33--------------------0-------------------------------------------------
-------22-2-2\1-1-0-1-0-1-0---------------------------------------------------
                                                                              

riff 1
------------------------------------------------------------------------------
-----------------------66-6-66------------------------------------------------
--7-777-5-555---4-444---------------------------------------------------------
------------------------------------------------------------------------------
                                                                              

riff 2
------------------------------------------------------------------------------
------------------------------------------------------------------------------
----------------------------656-8-10-12\--------------------------------------
--5-5-55-55-5-5444-44-44-4----------------------------------------------------
                                                                              

riff 3
------------------------------------------------------------------------------
------------------------------------------------------------------------------
------------------------------------------------------------------------------
--5-5-55-55-5-5444-44-44-4--3-3-3-3-2-2-2-2-1---------------------------------
                                                                              

riff 4
------------------------------------------------------------------------------
--2-2-22--00-0-00---------------7---------------------------------------------
------------------4-4-4h7-4h7-4-----------------------------------------------
------------------------------------------------------------------------------
                                                                              

Song:

Intro	2x
Verse
Prechorus	
Chorus	2x
Intro	2x
Verse
Prechorus
Chorus	2x
Intro	2x
Riff 1	2x
Riff 2
Riff 3
Chorus	4X
Intro	4x
Riff 4	 
00:00 / 00:00
Outros vídeos desta música
Repetir
Outros vídeos desta música
Composição de Colin Greenwood / Ed O'Brien / Jonny Greenwood / Phil Selway / Thom Yorke
Colaboração e revisão:
  • Pedro Augusto
3.070 exibições

0 comentários

Ver todos os comentários

Entre para oCifra Club PRO

Tenha acesso a benefícios exclusivos no App e no Site

  • Chega de anúncios

  • Prioridade de compra em lançamentos

  • Mais recursos no app do Afinador

  • Atendimento Prioritário

  • Descontos nos produtos Cifra Club

  • Ajude a produzir mais conteúdo

00:00 / 00:00

Cifra Club Pro

Aproveite o Cifra Club com benefícios exclusivos e sem anúncios
Cifra Club Pro
Aproveite o Cifra Club com benefícios exclusivos e sem anúncios
OK