Cifra Club

Just

Radiohead

Tab de baixo: Principal
Selo Cifra Club: esta cifra foi revisada para atender aos critérios oficiais da nossa Equipe de Qualidade.
Intro
------------------------------------------------------------------------------
------------------------------------------------------------------------------
--3-3-35-66-6-66-5-5-55-88-8-88-----------------------------------------------
------------------------------------------------------------------------------

Verse
----------------------------------------
--------------------------------------
------------------------------------------------------------------------------
-----------------656-8-10-12\------------------656-8-10-8\--------------------
-5-5-55-54-4-44-4--------------5-5-55-54-4-44-4-------------------------------

Prechorus
------------------------------------------------------------------------------
------------------------------------------------------------------------------
-----56865-------35635--------------------------------------------------------
-5-7---------45----------353-242-1----------------------------------------------


 Chorus
------------------------------------------------------------------------------
------------------------------------------------------------------------------
--3-3-33--------------------0-------------------------------------------------
-------22-2-2\1-1-0-1-0-1-0---------------------------------------------------


Riff 1
------------------------------------------------------------------------------
-----------------------66-6-66------------------------------------------------
--7-777-5-555---4-444---------------------------------------------------------
------------------------------------------------------------------------------


Riff 2
------------------------------------------------------------------------------
------------------------------------------------------------------------------
----------------------------656-8-10-12\--------------------------------------
--5-5-55-55-5-5444-44-44-4----------------------------------------------------


Riff 3
------------------------------------------------------------------------------
------------------------------------------------------------------------------
------------------------------------------------------------------------------
--5-5-55-55-5-5444-44-44-4--3-3-3-3-2-2-2-2-1---------------------------------


Riff 4
------------------------------------------------------------------------------
--2-2-22--00-0-00---------------7---------------------------------------------
------------------4-4-4h7-4h7-4-----------------------------------------------
------------------------------------------------------------------------------


Song

Intro	2x
Verse
Prechorus	
Chorus	2x
Intro	2x
Verse
Prechorus
Chorus	2x
Intro	2x
Riff 1	2x
Riff 2
Riff 3
Chorus	4x
Intro	4x
Riff 4
Outros vídeos desta música
    3.212 exibições

    Afinação da cifra

    Afinador online

    0 comentários

    Ver todos os comentários

    Conseguiu tocar?

    0Tocaram0Ainda não

    Grave um vídeo tocando Just e nos envie!

    Toque também

    1. Imagem do artista Jeff BuckleyHallelujah Jeff Buckley
    2. Imagem do artista SlowdiveDagger Slowdive
    3. Imagem do artista Sonic YouthIncinerate Sonic Youth
    4. Imagem do artista PulpCommon People Pulp

    Entre para o Cifra Club PRO

    Tenha acesso a benefícios exclusivos no App e no Site

    • Chega de anúncios

    • Badges exclusivas

    • Mais recursos no app do Afinador

    • Atendimento Prioritário

    • Aumente seu limite de lista

    • Ajude a produzir mais conteúdo

    Cifra Club Pro

    Aproveite o Cifra Club com benefícios exclusivos e sem anúncios
    Cifra Club Pro
    Aproveite o Cifra Club com benefícios exclusivos e sem anúncios
    Ops (: Contenido disponible sólo en portugués.
    OK