Cifra Club

A Mais Pedida

Raimundos

Cifra: Principal
exibições 1.474.653
Tom: C
Introdução: C  Am  C  Am  C  Am  D5
            C5  G5  A5  (3x)
            D5

Parte 1 de 2:

          C               Am
E|------------------------------------------|
B|--------8--x--8-10-8--x-5--5--x-5---------|
G|-7--9---9--x--9-------x-5--5--x-5---------|
D|-------10--x-10-------x-7--7--x-7---------|
A|------------------------------------------|
E|------------------------------------------|

          C               Am
E|------------------------------------------|
B|--------8--x--8-10-8--x-5--5--x-5---------|
G|-7--9---9--x--9-------x-5--5--x-5---------|
D|-------10--x-10-------x-7--7--x-7---------|
A|------------------------------------------|
E|------------------------------------------|

            C               Am
E|------------------------------------------|
B|----------8--x--8-10-8--x-5--5--x-5-------|
G|-7-5-7-5--9--x--9-------x-5--5--x-5-------|
D|---------10--x-10-------x-7--7--x-7-------|
A|------------------------------------------|
E|------------------------------------------|

           D5
E|------------------------------------------|
B|------------------------------------------|
G|-7--7/9--7----7h9-7h9---------------------|
D|---------7--------------------------------|
A|---------5--------------------------------|
E|------------------------------------------|

Parte 2 de 2:

   C5           G5            A5
E|-----------------------------------------------------|
B|-8--8--8--8-8-10--8--8-------------------------------|
G|------------------------9-9-9--9--9--9-9-9--9--9--9-9|  (3x)
D|-5--5--5--5-5--7--5--5-------------------------------|
A|------------------------7-7-7--7--7--7-7-7--7--7--7-7|
E|-----------------------------------------------------|

   D5
E|-----------------------------------------------------|
B|-----------------------------------------------------|
G|-7----7-7-7------------------------------------------|
D|-7----7-7-7------------------------------------------|
A|-5----5-5-5------------------------------------------|
E|-----------------------------------------------------|


Primeira Parte:

C5
   Nesse show não entra menor

Um homem censurou

Tava de mau humor
 F5                D5
Não tinha dormido bem 
                 A5  G5
Porque não levantou

C5
   Pense como ia ser bom

Se nós fizesse um som 

Que ultrapassasse
      F5
A barreira das A.M, F.M 
            A5
E dos elevador
    G5
Aí sim

Dá um selin'


Pré-Refrão:

C5                           D5
   E mostra o seio that you saw
              F5                   A5
Quando eu te vi o meu calção se abriu
          D5
Caiu uma lágrima 
      G5
De um olho
             
Que se for dos dois, então é namoro

Riff do Pré-Refrão:
E|-----------------------------------------------------|
B|-5b6r5--3--3h5--3~-----------------------------------|
G|-----------------------------------------------------|
D|-----------------------------------------------------|
A|-----------------------------------------------------|
E|-----------------------------------------------------|


Refrão:

Guitarra Solo:
E|------------------------------------------|
B|-13-13-13-13-13-13-13-13------------------|
G|-12-12-12-12-12-12-12-12------------------|   (4x)
D|------------------------------------------|
A|------------------------------------------|
E|------------------------------------------|

   D5            G5
E|------------------------------------------|
B|------------------------------------------|
G|-7--7--7-7-7-7----------------------------|
D|-7--7--7-7-7-7-5--5--5-5-5-5--------------|
A|-5--5--5-5-5-5-5--5--5-5-5-5--------------|
E|---------------3--3--3-3-3-3--------------|

C5
   Meu cabelo é ruim
F5
   Mas meu terno é de linho
C5
   Vou ser seu Salgadinho
F5                   D5
   Cê vai gostar de mim
         G5
Se eu tocar no seu radinho

C5
   Chora até o fim
F5
   Só pra rimar com im
C5
   Pois se eu ganhar "din din"
F5                   D5
   Cê vai gostar de mim
         G5
Se eu tocar no seu radinho


Interlúdio: C5  G5  A5  (3x)
            D5

   C5           G5            A5
E|-----------------------------------------------------|
B|-8--8--8--8-8-10--8----------------------------------|
G|------------------------9-9-9--9--9--9-9-7----9------|  (3x)
D|-5--5--5--5-5--7--5----------------------------------|
A|------------------------7-7-7--7--7--7-7-5----7------|
E|-----------------------------------------------------|

   D5
E|-----------------------------------------------------|
B|-----------------------------------------------------|
G|-7----7-7-7------------------------------------------|
D|-7----7-7-7------------------------------------------|
A|-5----5-5-5------------------------------------------|
E|-----------------------------------------------------|


Segunda Parte:

C5
   Por favor, seu locutor

Ao menos uma vez

Melhor se fossem três
 F5
Toca o nosso som aí
                 A5  ( C5  A5  C5 )
Que tu me faz feliz
D5                                 A5
   Se não tocar eu quebro o seu nariz

( C5  A5  C5 )

D5
   Se não tocar eu quebro o seu nariz


Solo: C5  D5  F5  A5  D5  G5

Parte 1 de 3:
E|-----------------------------------------------------|
B|-----------------------------------------------------|
G|-----------------------------------------------------|
D|-----------------------------------------------------|
A|-3---3-5b7r5-3~-----5-7-7h8p7--5~--------------------|
E|---3--------------5----------------------------------|

E|-----------------------------------------------------|
B|-----------------------------------------------------|
G|------------------5----------------------------------|
D|-7-7-7-7-5---5h7----7--5-----------------------------|
A|-----------7-------------7--8-7-8-7-8-7--5~----------|
E|-----------------------------------------------------|

E|-----------------------------------------------------|
B|-----------------------------------------------------|
G|-----------------------------------------------------|
D|-----------------------------------------------------|
A|-5h7--5--3--5/7--7~----------------------------------|
E|-----------------------------------------------------|

Parte 2 de 3:
E|-----------------------------------------------------|
B|------------------------5-5h6p5----------------------|
G|-5---5-7-7b9r7-5~-----7---------7~-------------------|
D|---5----------------7--------------------------------|
A|-----------------------------------------------------|
E|-----------------------------------------------------|

E|-----------------------8-----------------------------|
B|-10-10-10-10-8---8h10~---10--8-----------------------|
G|---------------9---------------9--10-9-10-9-10-9--7~-|
D|-----------------------------------------------------|
A|-----------------------------------------------------|
E|-----------------------------------------------------|

Parte 3 de 3:
E|-----------------------------15--------15------------|
B|-8h10-8~---13-12~--12-15b17-----15b17-----15b17r15-13|
G|-----------------------------------------------------|
D|-----------------------------------------------------|
A|-----------------------------------------------------|
E|-----------------------------------------------------|


Refrão:

C5
   Meu cabelo é ruim
F5
   Mas meu terno é de linho
C5
   Vou ser seu Salgadinho
F5                   D5
   Cê vai gostar de mim
         G5
Se eu tocar no seu radinho

C5
   Chora até o fim
F5
   Só pra rimar com im
C5
   Pois se eu ganhar "din din"
F5                   D5
   Cê vai gostar de mim
         G5
Se eu tocar no seu radinho

Só assim pr'eu tocar no seu radim


Final: C5  G5  A5  (3x)
       D5

   C5           G5            A5
E|-----------------------------------------------------|
B|-8--8--8--8-8-10--8--8-------------------------------|
G|------------------------9-9-9--9--9--9-9-7----9------|  (3x)
D|-5--5--5--5-5--7--5--5-------------------------------|
A|------------------------7-7-7--7--7--7-7-5----7------|
E|-----------------------------------------------------|

   D5
E|-----------------------------------------------------|
B|-----------------------------------------------------|
G|-7---------------------------------------------------|
D|-7---------------------------------------------------|
A|-5---------------------------------------------------|
E|-----------------------------------------------------|

0 comentários

    mostrar mais comentários

    Conseguiu tocar?

    78tocaram0ainda não

    Grave um vídeo tocando A Mais Pedida e mande pra gente!

    00:00 / 00:00
    outros vídeos desta música
    repetirqualidadeautomática
    Outro vídeos desta música
      00:00 / 00:00
      automática
      Capítulos
      • Tocando a música
      • Apresentação / Equipamentos
      • Configuração pedal Hot Drive
      • Acordes Introdução
      • Tocando Introdução
      • Introdução - Parte 1 de 2
      • Introdução - Parte 2 de 2
      • Introdução - Parte 2 (Guitarra base)
      • Acordes Primeira Parte
      • Tocando Primeira Parte
      • Ensinando Primeira Parte
      • Dicas Pré-Refrão
      • Tocando Pré-Refrão
      • Ensinando Pré-Refrão
      • Riff do Pré-Refrão
      • Dicas Refrão
      • Tocando Refrão
      • Refrão - Gutiarra Solo
      • Dicas Interlúdio
      • Tocando Interlúdio
      • Ensinando Interlúdio
      • Dicas Segunda Parte
      • Tocando Segunda Parte
      • Ensinando Segunda Parte
      • Dicas Solo
      • Tocando Solo
      • Solo - Parte 1 de 3
      • Solo - Parte 2 de 3
      • Solo - Parte 3 de 3
      • Encerramento
      OK