Cifra Club

Aquela

Raimundos

Cifra: Principal
exibições 275.257
Tom: E
[Intro]

E|-------------------------------------------------------------|
B|-------------------------------------------------------------|
G|-------------------------------6--6-6--6-6-------------------|
D|-------------------2--2-2--2-2-6--6-6--6-6--6--6-6--6-6------|
A|--2-2-2-4-2--------2--2-2--2-2-4--4-4--4-4--6--6-6--6-6------|
E|------------4-2-----------------------------4--4-4--4-4------|

E|---------------------------------------|
B|---------------------------------------|
G|--4-6b-6-4-----------------------------|
D|---------------------------------------|
A|---------------------------------------| 
E|---------------------------------------|


E                   C#m
  Toquei nela sem querer
        G#m     F#
  Ela gritou
E                         C#m
  Quem você pensa que eu sou?
       G#m    F#
  Ela falou
E                   C#m
  Bem que eu tentei acalmar
G#m                       B
   Mas não adiantou. Oh, não!
G#m        A               E               B
   Libere seus instintos, girl, vai ser legal
G#m     A            E            B
   Menininha, eu nunca quis te fazer mal
G#m            A     G#m     A
   Eu sei que respeito e consideração
F#                        B
   Nunca tiveram  nada a ver com tesão

E                    C#m
  Mas um dia ela pensou
      G#m      F#
  E aceitou
E                  C#m
  Agora quem quer sou eu
       G#m     F#
  Ela falou
E                C#m
  Bem que eu tentei acalmar
G#m                   B
    Mas não adiantou. Oh, não!
G#m     A                E               B
   Libere seus instintos, girl, vai ser legal
G#m     A            E            B
   Menininha, eu nunca quis te fazer mal
G#m         A     G#m     A
   Eu sei que respeito e consideração
F#                        B
   Nunca tiveram  nada a ver com tesão


E|------------------------------|
B|------------------------------|
G|------------------------------|
D|------------------------------|
A|--2-2-2-4-2-------------------| 
E|------------4-2---------------|

[Solo]   E C#m G#m
         E C#m G#m A

E|----------------------------------------------------------|
B|----------------------------------------------------------|
G|--9-9-9-9-8--6--6-6-6-4-----------4-------4---4-----------|
D|--------------------------6-6-6-6---6-6-6---6--6----------|
A|----------------------------------------------------------|
E|----------------------------------------------------------|

E|----------------------------------------------------------|
B|----------------------------------------------------------|
G|--9--9-9--9-8--6--6-6-6-4---------------------------------|
D|----------------------------6-6--6-6-6-6/7-7-9------------|
A|----------------------------------------------------------|
E|----------------------------------------------------------|


E                     C#m
  Toquei nela sem querer
          G#m    F#
  Ela gritou
E                         C#m
  Quem você pensa que eu sou?
       G#m     F#
  Ela falou
E                   C#m
  Bem que eu tentei acalmar
G#m                  B
   Mas não adiantou. Oh, não!
G#m        A               E               B
   Libere seus instintos, girl, vai ser legal
G#m     A            E            B
   Menininha, eu nunca quis te fazer mal
G#m         A     G#m     A
   Eu sei que respeito e consideração
F#                     B
   Nunca tiveram  nada a ver com tesão
Acordes para:
    Composição: Gabriel ThomazColaboração e revisão:

    0 comentários

      mostrar mais comentários

      Conseguiu tocar?

      42tocaram0ainda não

      Grave um vídeo tocando Aquela e mande pra gente!

      00:00 / 00:00
      outros vídeos desta música
      repetirqualidadeautomática
      Outro vídeos desta música
        00:00 / 00:00
        automática
        OK