Enviar cifraEntrar

Aquela

Raimundos

Cifra: Principal
exibições 262.576
Tom: E
Intro:


e|------------------------------------------------------------------
B|------------------------------------------------------------------
G|-------------------------------6--6-6--6-6---------------(2x)-----
D|-------------------2--2-2--2-2-6--6-6--6-6--6--6-6--6-6-----------
A|--2-2-2-4-2--------2--2-2--2-2-4--4-4--4-4--6--6-6--6-6-----------
E|------------4-2-----------------------------4--4-4--4-4-----------



Final da Intro:

e|-----------------|
B|-----------------|
G|--4-6b-6-4------|
D|-----------------|
A|-----------------| 
E|-----------------|


(palm mute)
E                    C#m
  Toquei nela sem querer
         G#m     F#
  ela gritou
E                        C#m
  Quem você pensa que eu sou?
        G#m     F#
  ela falou
E                  C#m 
  Bem que eu tentei acalmar,
G#m                      B
  mas não adiantou. Oh, não!
G#m      A                E               B
  Libere seus instintos, girl, vai ser legal.
G#m      A             E             B
  Menininha, eu nunca quis te fazer mal.
G#m           A     G#m      A
  Eu sei que respeito e consideração
F#                       B
  nunca tiveram  nada a ver com tesão.


e|-----------------|
B|-----------------|
G|--4-6b-6-4-------|
D|-----------------|
A|-----------------| 
E|-----------------|


E                   C#m
  Mas um dia ela pensou
        G#m      F#
  e aceitou
E                    C#m
  Agora quem quer sou eu
        G#m     F#
  ela falou
E                  C#m
  Bem que eu tentei acalmar
G#m                      B
  mas não adiantou. Oh, não!
G#m      A                E               B
  Libere seus instintos, girl, vai ser legal. 
G#m      A             E             B
  Menininha, eu nunca quis te fazer mal.
G#m           A     G#m      A
  Eu sei que respeito e consideração
F#                       B
  nunca tiveram  nada a ver com tesão.



e|-----------------|
B|-----------------|
G|-----------------|


D|-----------------|=====>(E)3X 
A|--2-2-2-4-2------| 
E|------------4-2--|


Solo:            "Essa primeira parte do solo tem que fazer 2 vezes"

e|----------------------------------------------------------|
B|----------------------------------------------------------|
G|--9-9-9-9-8--6--6-6-6-4-----------4-------4---4-----------|
D|--------------------------6-6-6-6---6-6-6---6--6----------|
A|----------------------------------------------------------|
E|----------------------------------------------------------|


e|---------------------------------------------------------|
B|---------------------------------------------------------|
G|--9--9-9--9-8--6--6-6-6-4-------------------------------|
D|----------------------------6-6--6-6-6-6/7-7-9----------|
A|---------------------------------------------------------|
E|---------------------------------------------------------|


Base do solo: E C#m G#m F# ==>2 vezes
      E C#m G#m A

E                    C#m
  Toquei nela sem querer
         G#m     F#
  ela gritou
E                        C#m
  Quem você pensa que eu sou?
        G#m     F#
  ela falou
E                  C#m 
  Bem que eu tentei acalmar,
G#m                      B
  mas não adiantou. Oh, não!
G#m      A                E               B
  Libere seus instintos, girl, vai ser legal.
G#m      A             E             B
  Menininha, eu nunca quis te fazer mal.
G#m           A     G#m      A
  Eu sei que respeito e consideração
F#                       B
  nunca tiveram  nada a ver com tesão.
  • 1
  • 2
  • 3
  • 4
  • 5
  • 6
  • 7
  • 8
  • 9
  • 10
  • 11
  • 12
    Acordes para:
      Composição: Gabriel ThomazColaboração e revisão:
      • Pato
      • Cimolin
      • Fahrenreit

      0 comentários

        mostrar mais comentários

        Conseguiu tocar?

        41tocaram0ainda não

        Grave um vídeo tocando Aquela e mande pra gente!

        00:00 / 00:00
        outros vídeos desta música
        repetirqualidadeautomática
        • automática
        Outro vídeos desta música
          00:00 / 00:00
          automática
          • automática
          Acordes para:violão e guitarra
          dificuldadeexibiçõescontribuições
          2 versões de Tab de baixoexibiçõescontribuições
          1 versão de Tab de bateriaexibiçõescontribuições
          1 versão de Guitar Proformatodownloadscontribuição
          fecharplay/pause subir/descer velocidade
            acordes
            fechar
            OK
            Feedback