Cifra Club

Aquela

Raimundos

Cifra: Principal (violão e guitarra)
exibições 284.914
Tom: E
Introdução: (E  C#m  G#m) 2x (PAUSA)

Riff:

E|---------------------|     e|---------------|
B|---------------------|     B|---------------|
G|---------------------|     G|--4-6b-6-4-----|
D|---------------------| 2x  D|---------------|
A|--2-2-2-4-2----------|     A|---------------|
E|------------4-2-0----|     E|---------------|

Primeira estrofe:

E                   C#m
  Toquei nela sem querer
        G#m     F#
  Ela gritou
E                         C#m
  Quem você pensa que eu sou?
         G#m    F#
  Ela falou
E                   C#m
  Bem que eu tentei acalmar
G#m                        B
    Mas não adiantou. Oh, não!

Refrão:

G#          A               E               B
    Libere seus instintos, girl, vai ser legal
G#          A             E            B
    Menininha, eu nunca quis te fazer mal
G#              A       G#          A
    Eu sei que respeito     e consideração
F#                        B            (PAUSA)
   Nunca tiveram  nada a ver com tesão

Segunda estrofe:

E                    C#m
  Mas um dia ela pensou
         G#m  F#
  E aceitou
E                     C#m
  Agora quem quer sou eu
         G#m  F#
  Ela falou
E                   C#m
  Bem que eu tentei acalmar
G#m                        B
    Mas não adiantou. Oh, não!

Refrão:

G#          A               E               B
    Libere seus instintos, girl, vai ser legal
G#          A             E            B
    Menininha, eu nunca quis te fazer mal
G#              A       G#         A
    Eu sei que respeito     e consideração
F#                        B            (Riff 3x)
   Nunca tiveram  nada a ver com tesão

Solo: (E5 Eb5 Db5 B5 G#5) 2x
       E5 Eb5 Db5 B5 G#5 A5

E|----------------------------------------------------------|
B|----------------------------------------------------------|
G|--9-9-9-9-8--6--6-6-6-4-----------4-------4---4-----------|
D|--------------------------6-6-6-6---6-6-6---6--6----------|
A|----------------------------------------------------------|
E|----------------------------------------------------------|

E|----------------------------------------------------------|
B|----------------------------------------------------------|
G|--9--9-9--9-8--6--6-6-6-4---------------------------------|
D|----------------------------6-6--6-6-6-6/7-7-9------------|
A|----------------------------------------------------------|
E|----------------------------------------------------------|

Primeira estrofe:

E                   C#m
  Toquei nela sem querer
        G#m     F#
  Ela gritou
E                         C#m
  Quem você pensa que eu sou?
         G#m    F#
  Ela falou
E                   C#m
  Bem que eu tentei acalmar
G#m                        B
    Mas não adiantou. Oh, não!

Refrão:

G#          A               E               B
    Libere seus instintos, girl, vai ser legal
G#          A             E            B
    Menininha, eu nunca quis te fazer mal
G#              A       G#         A
    Eu sei que respeito     e consideração
F#                        B            (PAUSA)
   Nunca tiveram  nada a ver com tesão
Acordes para:

    0 comentários

      mostrar mais comentários

      Conseguiu tocar?

      46tocaram0ainda não

      Grave um vídeo tocando Aquela e mande pra gente!

      00:00 / 00:00
      outros vídeos desta música
      repetirqualidadeAutomático
      Outro vídeos desta música
        00:00 / 00:00
        OK