Cifra Club

Eu Quero Ver o Oco

Raimundos

Cifra: Principal
exibições 514.041
Tom: G
[Intro]

E|------------------------------------------------------------------|
B|------------------------------------------------------------------|
G|------------------------------------------------------------------|
D|------------------------------------------------------------------|
A|--5-7-0--2-2-2-0-2--2--5-7-0-2-5-7-0--2-2-2-0-2-2--5-7-0-2-5-7-0--|
D|--5-7-0--2-2-2-0-2--2--5-7-0-2-5-7-0--2-2-2-0-2-2--5-7-0-2-5-7-0--|

E|------------------------------------------------------------------|
B|------------------------------------------------------------------|
G|------------------------------------------------------------------|
D|------------------------------------------------------------------|
A|--2-2-2-0-2-0-2--5-7-0-2-5-7-0--2-2-2-0-2-0-2--5-7-0-2-5-7-0------|
D|--2-2-2-0-2-0-2--5-7-0-2-5-7-0--2-2-2-0-2-0-2--5-7-0-2-5-7-0------|

E|------------------------------------------------------------------|
B|------------------------------------------------------------------|
G|------------------------------------------------------------------|
D|------------------------------------------------------------------|(2x)
A|--5-5-7-8-9-9-10-11--5-5-7-8-9-9-10-11----------------------------|
D|--5-5-7-8-9-9-10-11--5-5-7-8-9-9-10-11----------------------------|

E|------------------------------------------------------------------|
B|------------------------------------------------------------------|
G|------------------------------------------------------------------|
D|------------------------------------------------------------------|
A|--2---------------------------------------------------------------|
D|--2---------------------------------------------------------------|

[Riff 1]

E|------------------------------------------------------------------|
B|------------------------------------------------------------------|
G|------------------------------------------------------------------|
D|---------------------------------------------------5-5------3-3---|
A|-5-7-0-2-2-2-0-2-0-2-5-7-0-2-4-5-0--2-2-2-0-2-0-2--5-5-3-3--3-3-0-|
D|-5-7-0-2-2-2-0-2-0-2-5-7-0-2-4-5-0--2-2-2-0-2-0-2--5-5-3-3------0-|

E|------------------------------------------------------------------|
B|------------------------------------------------------------------|
G|------------------------------------------------------------------|
D|---------------------------------------------5-5------3-3---------|
A|-2-2-2-0-2-0-2-5-7-0-2-4-5-0--2-2-2-0-2-0-2--5-5-3-3--3-3-0-------|
D|-2-2-2-0-2-0-2-5-7-0-2-4-5-0--2-2-2-0-2-0-2--5-5-3-3------0-------|

[Riff 2]

E|------------------------------------------------------------------------|
B|------------------------------------------------------------------------|
G|------------------------------------------------------------------------|
D|------------------------------------------------------------------------|
A|--5-5-7-8-9-9-10-11-5-5-7-8-9-9-10-11-5-5-7-8-9-9-10-11-5-5-7-8-9-9-9-9-|
D|--5-5-7-8-9-9-10-11-5-5-7-8-9-9-10-11-5-5-7-8-9-9-10-11-5-5-7-8-9-9-9-9-|

E|------------------------------------------------------------------------|
B|------------------------------------------------------------------------|
G|------------------------------------------------------------------------|
D|------------------------------------------------------------------------|
A|--5-5-7-8-9-9-10-11-5-5-7-8-9-9-10-11-5-5-7-8-9-9-10-11-5-5-5-5---------|
D|--5-5-7-8-9-9-10-11-5-5-7-8-9-9-10-11-5-5-7-8-9-9-10-11-5-5-5-5---------|

[Riff 3]

E|------------------------------------------------------------------------|
B|------------------------------------------------------------------------|
G|------------------------------------------------------------------------|
D|------------------------------------------------------------------------|
A|-7-7-7-0-0-0-0-0--0--3-3-3-5-5-6-7-0-0-0-0-0--0--3-3-3-5-5-6-7----------|
D|-7-7-7-0-0-0-0-0--0--3-3-3-5-5-6-7-0-0-0-0-0--0--3-3-3-5-5-6-7----------|

E|------------------------------------------------------------------------|
B|------------------------------------------------------------------------|
G|------------------------------------------------------------------------|
D|------------------------------------------------------------------------|
A|-0-0-0-0-0--0--3-3-3-5-5-6-7-0-0-0-0-0--0--3-3-3-5-5-6-7----------------|
D|-0-0-0-0-0--0--3-3-3-5-5-6-7-0-0-0-0-0--0--3-3-3-5-5-6-7----------------|

[Riff 4]

E|------------------------------------------------------------------------|
B|------------------------------------------------------------------------|
G|-4-4-4-5-4-5-4-4-4-5-4-5-4-4-4-5-4-5-4-4-4-4----------------------------|
D|-4-4-4-5-4-5-4-4-4-5-4-5-4-4-4-5-4-5-4-4-4-4----------------------------|
A|-2-2-2-3-2-3-2-2-2-3-2-3-2-2-2-3-2-3-2-2-2-2----------------------------|
D|------------------------------------------------------------------------|

[Solo]

E|--8/7-7~--7-8-7-8-10-10(12)-10------------------------------------------------|
B|----------------------------------7----7-8-7-8b-8-7----------------------9/10-|
G|------------------------------9-9---9---------------9-7-9-9/11-9-7---9~--8/9--|
D|-------------------------------------------------------------------9----------|
A|------------------------------------------------------------------------------|
D|------------------------------------------------------------------------------|

E|-----------------------------15-15-15-14--15-14-12-12-14-15-14-12~------------|
B|-7/8-6/7----------------------------------------------------------------------|
G|-6/7-5/6---4-2-4-4/5-5/7~-----------------------------------------------------|
D|------------------------------------------------------------------------------|
A|------------------------------------------------------------------------------|
D|------------------------------------------------------------------------------|

E|------------------------------------------------------------------------------|
B|-----------------9(11)-9(11)-9(11)---11/13~-13/15~-15/16~---------------------|
G|-------------------------------------------------------12/14~-----------------|
D|------------------------------------------------------------------------------|
A|------------------------------------------------------------------------------|
E|------------------------------------------------------------------------------|

 [Riff 1]
Fizera pouco em tê-lo deixado todo quebrado
Desfigurado, irreconhecível até pra mãe
- Mãe, olha só que legal, carro que eu ganhei no natal
Tu que me deu, disse: "Cuidado pra que não arranhe"

  [Riff 2]
- Menino doido, tu quebrou até os friso
Tem noção do prejuízo?
Acho que o teu pai vai te matar
Os olhos dele esperando o carro do ano
Um modelo italiano
Que acabaram de inventar

 [Riff 1]
Carrão da porra, tu pisava ele voava
Tu freava ele ancorava,
E eu lá dentro a me debater
No bate-bate com a cabeça no volante
Voei pelo, vidro da frente, a raiva preta eu não pude conter

 [Riff 2]
Com o sangue quente,
Cortei a testa,
Quebrei os dente
E toda aquela gente
Peste! num vem ninguém me ajudar
Nem se mexiam, pior que isso eles riam
Teto preto, o tempo fecha, os ovo inflama, ora do pau cantar

[Riff 3]
Eu quero é ver o oco...
Só na mãozada eu deitei seis, mas detestei matar
Eu quero é ver o oco...
Sem controle, tocando fole, é hora de dançar

[Riff 4]

 [Riff 1]
Meu ódio por automotores começou cedo
Depois que eu tranquei os dedo na porta dum opalão
Meu pai de dentro se ria que se mijava
Achou que o filho festejava, era dia de cosme e damião

 [Riff 2]
Depois do dedo, foi o braço, a perna as costa
Tu duvida, bate aposta
Pois muitos vão lhe testemunhar
Tanta fratura que deixô a doutora louca
É pino até no céu da boca
Tu cansa só de tentar contar

[Riff 3]
Eu quero é ver o oco...
É pedir muito uma enfermeira vir me ajudar?
Eu quero é ver o oco...
Ó enfermeira, gente boa, vem me medicar

[Riff 3]
Eu quero é ver o oco...
Eu quero é ver o oco...
Acordes para:
    Composição: Canisso / Digão / RodolfoColaboração e revisão:

    0 comentários

      mostrar mais comentários

      Conseguiu tocar?

      37tocaram1ainda não

      Grave um vídeo tocando Eu Quero Ver o Oco e mande pra gente!

      00:00 / 00:00
      outros vídeos desta música
      repetirqualidadeautomática
      Outro vídeos desta música
        00:00 / 00:00
        automática
        OK