Cifra Club

Me Lambe

Raimundos

Tab de baixo: Principal
exibições 54.067
Introdução 

Parte 01 de 01

G|----------------------------------------------|
D|----------------------------------------------|
A|-7-6--5-5-5-5--5-5-5-5--5---5-4-3-2-----------|
E|----------------------------------------------|

G|----------------------------------------------|
D|-----4-0-2-x------------4-0-2-4/5-4-2---------|
A|-2-5---------5-4-3--2-5-----------------------|
E|----------------------------------------------|

G|----------------------------------------------|
D|-----4-0-2-x------------4-0-2-x---------------|
A|-2-5---------5-4-3--2-5---------5-4-3---------|
E|----------------------------------------------|

Primeira parte

O quê? O que que essa criança tá fazendo...

Parte 01 de 05 ( tocar 2x )

G|----------------------------------------------|
D|---5-4--------------5-4-5---------------------|
A|-7-----7-5---5-6--7-------5---5-6-------------|
E|-----------7----------------7-----------------|

G|----------------------------------------------|
D|---5-4----------------5-4-5-------------------|
A|-7-----7-5-5---5-6--7-------5-5---5-6---------|
E|-------------7------------------7-------------|

Parte 02 de 05

G|----------------------------------------------|
D|----------------------------------------------|
A|-3-----3-3--3---3--3---3----------------------|
E|---3h5--------5------5----5-0-3-5--5--5-3-5---|

G|----------------------------------------------|
D|----------------------------------------------|
A|----------------------------------------------|
E|-5-3-5----------------------------------------|

Parte 03 de 05

G|----------------------------------------------|
D|----------------------------------------------|
A|-3-----3-3--3---3--3---3--------------5-----5-|
E|---3h5--------5------5----5-0-3-5--5----5h7---|

G|----------------------------------------------|
D|----------------------------------------------|
A|-5--------------------------------------------|
E|----------------------------------------------|

Parte 04 de 05

G|----------------------------------------------|
D|---5-4----------------5-4-5-------------------|
A|-7-----7-5-5---5-6--7-------5-5---5-4---------|
E|-------------7------------------7-------------|

G|----------------------------------------------|
D|---5-4--------------5-4-5---------------------|
A|-7-----7-5---5-6--7-------5---5-4-------------|
E|-----------7----------------7-----------------|

Parte 05 de 05

G|----------------------------------------------|
D|----------------------------------------------|
A|---------------------------3-----3-3--3---3---|
E|-5-0-3-5--5--5-3-5--5-3-5----3h5--------5-----|

G|----------------------------------------------|
D|----------------------------------------------|
A|-3---3----------------------------3-----3-3---|
E|---5----5-0-3-5--5--5-3-5--5-3-5----3h5-------|

G|----------------------------------------------|
D|----------------------------------------------|
A|-5-5-5-5-5---5-5-5-5-5--5-4-3-----------------|
E|----------------------------------------------|

Refrão 

Como a vista é linda da roda gigante, é...

Parte 01 de 02

G|----------------------------------------------|
D|-----4-0-2-5-4-2-----4-0-2--------------------|
A|-2-5-------------2-5--------5-4-3-------------|
E|----------------------------------------------|

G|----------------------------------------------|
D|-----4-0-2-2------------4-0-2-5-4-2-----------|
A|-2-5---------5-4-3--2-5-----------------------|
E|----------------------------------------------|

Parte 02 de 02

G|----------------------------------------------|
D|-----4-0-2-x------------4-0-2-x---------------|
A|-2-5---------5-4-3--2-5----------5-4-3--------|
E|----------------------------------------------|

G|----------------------------------------------|
D|-----4-0-2-x------------4-0-2-x---------------|
A|-2-5---------5-4-3--2-5---------5-4-3---------|
E|----------------------------------------------|

Segunda Parte

Sinto, amigo, lhe dizer, mas ela é de menor...

Parte 01 de 03

G|----------------------------------------------|
D|---5-4--------------5-4-5---------------------|
A|-7-----7-5---5-6--7-------5---5-6-------------|
E|-----------7----------------7-----------------|

G|----------------------------------------------|
D|---5-4----------------5-4-5-------------------|
A|-7-----7-5-5---5-6--7-------5-5---5-6---------|
E|-------------7------------------7-------------|

Parte 02 de 03

G|----------------------------------------------|
D|----------------------------------------------|
A|----------------------------------------------|
E|-3-1-2-3-3--3-1-3--3-1-3--5-0-3-5--5--5-3-5---|

G|----------------------------------------------|
D|----------------------------------------------|
A|-------3-----3-3--3---3--3-3--7-----7-7-------|
E|-5-3-5---3h5--------5-----------7h9-----0-0---|

Parte 03 de 03

G|----------------------------------------------|
D|----------------------------------------------|
A|-5-7--3---5-------------------------------3---|
E|--------5---5--3-1-2-3-3--3-1-3--3-1-3--5-----|

G|----------------------------------------------|
D|----------------------------------------------|
A|-5-5-5-5--5-5-5-5--5--5-4-3-------------------|
E|----------------------------------------------|

Solo de Guitarra 

Parte 01 de 02

G|----------------------------------------------|
D|---5-4--------------5-4-5---------------------|
A|-7-----7-5---5-6--7-------5---5-6-------------|
E|-----------7----------------7-----------------|

G|----------------------------------------------|
D|---5-4----------------5-4-5-------------------|
A|-7-----7-5-5---5-6--7-------5-5---5-6---------|
E|-------------7------------------7-------------|

Parte 02 de 02

G|----------------------------------------------|
D|----------------------------------------------|
A|---------------------------3-----3-3--3---3---|
E|-5-0-3-5--5--5-3-5--5-3-5----3h5--------5-----|

G|----------------------------------------------|
D|----------------------------------------------|
A|-3---3----------------------------3-----3-3---|
E|---5----5-0-3-5--5--5-3-5--5-3-5----3h5-------|

G|----------------------------------------------|
D|----------------------------------------------|
A|-5-5-5-5--5-5-5-5--5--5-4-3-------------------|
E|----------------------------------------------|

Refrão 02

Como a vista é linda da roda gigante, é...

Parte 01 de 03

G|----------------------------------------------|
D|-----4-0-2-x------------4-0-2-5-4-2-----------|
A|-2-5---------5-4-3--2-5-----------------------|
E|----------------------------------------------|

G|----------------------------------------------|
D|-----4-0-2-x------------4-0-2-2---------------|
A|-2-5---------5-4-3--2-5---------5-4-5---------|
E|----------------------------------------------|

Parte 02 de 03

G|----------------------------------------------|
D|-----4-0-2-5-4-2-----4-0-2-x------------------|
A|-2-5-------------2-5---------5-4-3------------|
E|----------------------------------------------|

G|----------------------------------------------|
D|-----4-0-2-5-4-2-----4-0-2--------------------|
A|-2-5-------------2-5-------0-5-0-4-0-3-0------|
E|----------------------------------------------|

Parte 03 de 03 ( Tocar 2x + fade out )

G|----------------------------------------------|
D|-----4-0-2-x------------4-0-2-4/5-4-2---------|
A|-2-5---------5-4-3--2-5-----------------------|
E|----------------------------------------------|

G|----------------------------------------------|
D|-----4-0-2-x------------4-0-2-x---------------|
A|-2-5---------5-4-3--2-5---------5-4-3---------|
E|----------------------------------------------|

Composição: Digão / Fred / RodolfoColaboração e revisão:
  • Reginaldo Costa
  • Maninho Inline

0 comentários

    mostrar mais comentários

    Conseguiu tocar?

    6tocaram0ainda não

    Grave um vídeo tocando Me Lambe e mande pra gente!

    00:00 / 00:00
    outros vídeos desta música
    repetirqualidadeautomática
    Outro vídeos desta música
      00:00 / 00:00
      automática
      OK