Cifra Club

Me Lambe

Raimundos

Tab de baixo: Principal
exibições 54.372
[Introdução] 

G|----------------------------------------------|
D|----------------------------------------------|
A|-7-6--5-5-5-5--5-5-5-5--5---5-4-3-2-----------|
E|----------------------------------------------|

G|----------------------------------------------|
D|-----4-0-2-x------------4-0-2-4/5-4-2---------|
A|-2-5---------5-4-3--2-5-----------------------|
E|----------------------------------------------|

G|----------------------------------------------|
D|-----4-0-2-x------------4-0-2-x---------------|
A|-2-5---------5-4-3--2-5---------5-4-3---------|
E|----------------------------------------------|


[Primeira parte]

O quê? O que que essa criança tá fazendo...

Parte 1 de 5 (2x)
G|----------------------------------------------|
D|---5-4--------------5-4-5---------------------|
A|-7-----7-5---5-6--7-------5---5-6-------------|
E|-----------7----------------7-----------------|

G|----------------------------------------------|
D|---5-4----------------5-4-5-------------------|
A|-7-----7-5-5---5-6--7-------5-5---5-6---------|
E|-------------7------------------7-------------|

Parte 2 de 5
G|----------------------------------------------|
D|----------------------------------------------|
A|-3-----3-3--3---3--3---3----------------------|
E|---3h5--------5------5----5-0-3-5--5--5-3-5---|

G|----------------------------------------------|
D|----------------------------------------------|
A|----------------------------------------------|
E|-5-3-5----------------------------------------|

Parte 3 de 5
G|----------------------------------------------|
D|----------------------------------------------|
A|-3-----3-3--3---3--3---3------------5-----5-5-|
E|---3h5--------5------5---5-0-3-5--5---5h7-----|

Parte 4 de 5
G|----------------------------------------------|
D|---5-4----------------5-4-5-------------------|
A|-7-----7-5-5---5-6--7-------5-5---5-6---------|
E|-------------7------------------7-------------|

G|----------------------------------------------|
D|---5-4--------------5-4-5---------------------|
A|-7-----7-5---5-6--7-------5---5-6-------------|
E|-----------7----------------7-----------------|

Parte 5 de 5
G|----------------------------------------------|
D|----------------------------------------------|
A|---------------------------3-----3-3--3---3---|
E|-5-0-3-5--5--5-3-5--5-3-5----3h5--------5-----|

G|----------------------------------------------|
D|----------------------------------------------|
A|-3---3----------------------------3-----3-3---|
E|---5----5-0-3-5--5--5-3-5--5-3-5----3h5-------|

G|----------------------------------------------|
D|----------------------------------------------|
A|-5-5-5-5-5---5-5-5-5-5--5-4-3-----------------|
E|----------------------------------------------|


[Refrão]

Como a vista é linda da roda gigante, é...

Parte 1 de 2
G|----------------------------------------------|
D|-----4-0-2-5-4-2-----4-0-2--------------------|
A|-2-5-------------2-5--------5-4-3-------------|
E|----------------------------------------------|

G|----------------------------------------------|
D|-----4-0-2-2------------4-0-2-5-4-2-----------|
A|-2-5---------5-4-3--2-5-----------------------|
E|----------------------------------------------|

Parte 2 de 2
G|----------------------------------------------|
D|-----4-0-2-x------------4-0-2-x---------------|
A|-2-5---------5-4-3--2-5----------5-4-3--------|
E|----------------------------------------------|

G|----------------------------------------------|
D|-----4-0-2-x------------4-0-2-x---------------|
A|-2-5---------5-4-3--2-5---------5-4-3---------|
E|----------------------------------------------|


[Segunda Parte]

Sinto, amigo, lhe dizer, mas ela é de menor...

Parte 1 de 3
G|----------------------------------------------|
D|---5-4--------------5-4-5---------------------|
A|-7-----7-5---5-6--7-------5---5-6-------------|
E|-----------7----------------7-----------------|

G|----------------------------------------------|
D|---5-4----------------5-4-5-------------------|
A|-7-----7-5-5---5-6--7-------5-5---5-6---------|
E|-------------7------------------7-------------|

Parte 2 de 3
G|----------------------------------------------|
D|----------------------------------------------|
A|----------------------------------------------|
E|-3-1-2-3-3--3-1-3--3-1-3--5-0-3-5--5--5-3-5---|

G|----------------------------------------------|
D|----------------------------------------------|
A|-------3-----3-3--3---3--3-3--7-----7-7-------|
E|-5-3-5---3h5--------5-----------7h9-----0-0---|

Parte 3 de 3
G|----------------------------------------------|
D|----------------------------------------------|
A|-5-7--3---5-------------------------------3---|
E|--------5---5--3-1-2-3-3--3-1-3--3-1-3--5-----|

G|----------------------------------------------|
D|----------------------------------------------|
A|-5-5-5-5--5-5-5-5--5--5-4-3-------------------|
E|----------------------------------------------|


[Solo de Guitarra]

Parte 1 de 2
G|----------------------------------------------|
D|---5-4--------------5-4-5---------------------|
A|-7-----7-5---5-6--7-------5---5-6-------------|
E|-----------7----------------7-----------------|

G|----------------------------------------------|
D|---5-4----------------5-4-5-------------------|
A|-7-----7-5-5---5-6--7-------5-5---5-6---------|
E|-------------7------------------7-------------|

Parte 2 de 2
G|----------------------------------------------|
D|----------------------------------------------|
A|---------------------------3-----3-3--3---3---|
E|-5-0-3-5--5--5-3-5--5-3-5----3h5--------5-----|

G|----------------------------------------------|
D|----------------------------------------------|
A|-3---3----------------------------3-----3-3---|
E|---5----5-0-3-5--5--5-3-5--5-3-5----3h5-------|

G|----------------------------------------------|
D|----------------------------------------------|
A|-5-5-5-5--5-5-5-5--5--5-4-3-------------------|
E|----------------------------------------------|


[Refrão 2]

Como a vista é linda da roda gigante, é...

Parte 1 de 3
G|----------------------------------------------|
D|-----4-0-2-x------------4-0-2-5-4-2-----------|
A|-2-5---------5-4-3--2-5-----------------------|
E|----------------------------------------------|

G|----------------------------------------------|
D|-----4-0-2-x------------4-0-2-2---------------|
A|-2-5---------5-4-3--2-5---------5-4-5---------|
E|----------------------------------------------|

Parte 2 de 3
G|----------------------------------------------|
D|-----4-0-2-5-4-2-----4-0-2-x------------------|
A|-2-5-------------2-5---------5-4-3------------|
E|----------------------------------------------|

G|----------------------------------------------|
D|-----4-0-2-5-4-2-----4-0-2--------------------|
A|-2-5-------------2-5-------0-5-0-4-0-3-0------|
E|----------------------------------------------|

Parte 3 de 3 (2x)

G|----------------------------------------------|
D|-----4-0-2-x------------4-0-2-4/5-4-2---------|
A|-2-5---------5-4-3--2-5-----------------------|
E|----------------------------------------------|

G|----------------------------------------------|
D|-----4-0-2-x------------4-0-2-x---------------|
A|-2-5---------5-4-3--2-5---------5-4-3---------|
E|----------------------------------------------|

Composição: Digão / Fred / RodolfoColaboração e revisão:
  • Reginaldo Costa
  • Maninho Inline

0 comentários

    mostrar mais comentários

    Conseguiu tocar?

    6tocaram0ainda não

    Grave um vídeo tocando Me Lambe e mande pra gente!

    00:00 / 00:00
    outros vídeos desta música
    repetirqualidadeautomática
    Outro vídeos desta música
      00:00 / 00:00
      automática
      OK