Cifra Club

Aprenda

Amour

Rammstein

Tab de baixo: Principal
Já pensou em usar uma coleção de roupas do Cifra Club? Responda as perguntas abaixo e nos ajude nessa missão! →
G|--------------------------------------------------------
D|--------------------------------------------------------
A|--------------------------------------------------------
D|--10-----3--------10-----3--------5-----3--------5----6-

G|------------------------------------------------------
D|------------------------------------------------------
A|------------------------------------------------------
D|-10-----6--------5-----3--------1-----3--------5----6-

G|------------------------------------------------------
D|------------------------------------------------------
A|------------------------------------------------------
D|-10-----6--------5-----3--------1-----3--------5----6-

G|------------------------------------------------------
D|------------------------------------------------------
A|------------------------------------------------------
D|-10-----6--------5-----3--------1-----3--------5----6-

G|---------------------------
D|---------------------------
A|---------------------------
D|-10--10--10--10----9-----9-

G|---------------------------
D|---------------------------
A|---------------------------
D|-10--10--10--10----9-----9-

G|----------------------------
D|----------------------------
A|----------------------------
D|-10--10--10--10----9-----10-
Composição de Christian Doktor Lorenz / Christoph Doom Schneider / Paul Landers / Rammstein / Richard Z. Kruspe / Till Lindemann
Colaboração e revisão:
  • Reginaldo Costa
740 exibições

0 comentários

Ver todos os comentários

Conseguiu tocar?

0 Tocaram 0 Ainda não

Grave um vídeo tocando Amour e nos envie!

00:00 / 00:00
Outros vídeos desta música
Repetir Qualidade Automático
Outros vídeos desta música
00:00 / 00:00
Automático

Cifra Club Pro

Aproveite o Cifra Club com benefícios exclusivos e sem anúncios
Cifra Club Pro
Aproveite o Cifra Club com benefícios exclusivos e sem anúncios
OK