Cifra Club

Bye Bye Baby

Ramones

Cifra: Principal (violão e guitarra)
Tom: F
Intro 2x:
E|----------------------------------------------------------------------------------------|
B|----------------------------------------------------------------------------------------|
G|--------------------------------------------------------2-------------------------------|
D|-3-2-3--5-3-2-3-0----------3-2-3--5-3-2----------3-2-3-----5-3-5-----2-2-2--2--3-4-0-2--|
A|------------------------------------------3-1---------------------3---------------------|
E|----------------------------------------------------------------------------------------|

Woke up thinking 'bout you today
Why does it have to be this way
We drove each other crazy
Bye bye babe, bye bye baby

Well I guess it's over and it's done
We had some good times-we had fun
We drove each other crazy
I'll always love you

            F5           D5
   Bye bye baby babe bye bye
           Bb5             C5
   Bye bye baby don't you cry
            F5           D5
   Bye bye baby babe bye bye
           Bb5             C5
   Bye bye baby don't you cry

Woke up thinking 'bout you today
Felt sad and lonely
We drove each other crazy
I'll always love you baby

Well I guess it's over and it's done
We had some good times-we had fun
We drove each other crazy
I'll always love you

            F5           D5
   Bye bye baby babe bye bye
           Bb5             C5
   Bye bye baby don't you cry
            F5           D5
   Bye bye baby babe bye bye
           Bb5             C5
   Bye bye baby don't you cry

Riff 2x:
E|----------------------------------------------------------------------------------------|
B|----------------------------------------------------------------------------------------|
G|--------------------------------------------------------2-------------------------------|
D|-3-2-3--5-3-2-3-0----------3-2-3--5-3-2----------3-2-3-----5-3-5-----2-2-2--2--3-4-0-2--|
A|------------------------------------------3-1---------------------3---------------------|
E|----------------------------------------------------------------------------------------|

( C5  9x ↓↓↓↓↓↓↓↓↓)

( B5 )

( Bb5 9x ↓↓↓↓↓↓↓↓↓ )

( G5 )

Refrão final:
            E5           G5   C5
   Bye bye baby babe bye bye
            D5             G5
   Bye bye baby don't you cry
            E5           G5   C5
   Bye bye baby babe bye bye
            D5             G5
   Bye bye baby don't you cry

( E5 G5 C5 )

( D5 G5 ) 
exibições 16.759
Acordes para:
    Composição: Dee Dee Ramone / Joey Ramone / Johnny Ramone / Tommy Ramone Colaboração e revisão:
    • Matheus Lara

    0 comentários

    mostrar mais comentários

    Conseguiu tocar?

    3 tocaram 0 ainda não

    Grave um vídeo tocando Bye Bye Baby e mande pra gente!

    00:00 / 00:00
    outros vídeos desta música
    repetir qualidade Automático
    Outros vídeos desta música
    00:00 / 00:00
    Automático
    OK