Cifra Club

Aprenda

Questioningly

Ramones

Cifra: Principal (violão e guitarra)
Tom: D
(intro)

      D           G            Bm           A
E|---5-----------7------------10-----------9--------------
B|---7-----------8------------12-----------10-------------
G|---7-----------7------------11-----------9--------------
D|-------------------------------------------------------- (2x)
A|--------------------------------------------------------
E|--------------------------------------------------------
(2ª vez, faz os riffs referentes a G e D, nessa ordem)

D                 G
Questioningly her eyes looked at me
D
And then she spoke
D                    G
Aren't you someone I used to Know
    Bm                  A
And weren't we lovers a long time ago ?

D
Looked at her close
G
Forced her into view
D
Yes, I said, you're a girl
     G Bm            A
That I once may have knew

    G                D
But I don't love you anymore
G                  D
Why do you want to talk to me for ?
G                        D
You should have just let me walk by
G        Bm      A       D
Memories make us cry

                G
In the morning, I'm at work at time
D                        G   Bm    A
My boss he tells me that I'm doing fine
G              D
When I'm going home
G              D
Whiskey bottle movie on T.V
G        D
Memories make me cry
    G             Bm
And I'm alone just me
     A               D
Just me, Questioningly ...

          D     G      Bm      A       D    G    Bm    A
E|-------5-----7------10----10\9----7\5----7----10----12-----------------------------
B|-10\3--7-----8------12----12\10---8\7----8----12----14-----------------------------
G|-------7-----7------11----11\9----7\7----7----11----14-----------------------------
D|-----------------------------------------------------------------------------------
A|-----------------------------------------------------------------------------------
E|-----------------------------------------------------------------------------------

(sugestão)
--------------------------------------
---12-----------15--------17----------
---12-----------16b19-----18b21-------
--------------------------------------
--------------------------------------
--------------------------------------

   G                 D
But I dont love you anymore
   G                 D
Why do you want to talk to me for?
   G                 D
You should have just let me walk by
   G      Bm      A
Memories make us cry

 D
Looked at her close
 G
Forced into view
 D
Yes, I said you're a girl
 G      Bm            A
That I once may have knew

 D
Questioningly her eyes looked at me
 G
And then she spoke aren't you someone
   G                 Bm                  A
I used to know, and weren't we lovers a long time ago?
Composição de Ramones
Colaboração e revisão:
  • Aerson Moreira
  • Wagner Farias
9.980 exibições
    • ½ Tom
    • A
    • Bb
    • B
    • C
    • Db
    • D
    • Eb
    • E
    • F
    • F#
    • G
    • Ab
  • Adicionar à lista

    0 comentários

    Mostrar mais comentários

    Conseguiu tocar?

    1 Tocaram 0 Ainda não

    Grave um vídeo tocando Questioningly e mande pra gente!

    00:00 / 00:00
    outros vídeos desta música
    repetir qualidade Automático
    Outros vídeos desta música
    00:00 / 00:00
    Automático

    Cifra Club Pro

    Aproveite o Cifra Club com benefícios exclusivos e sem anúncios
    7 dias grátis
    Cifra Club Pro
    Aproveite o Cifra Club com benefícios exclusivos e sem anúncios
    7 dias grátis
    OK