Cifra Club

Aprenda

Spiderman

Ramones

Cifra: Versão 3 (violão e guitarra)
Tom: D
Spider-Man
Ramones

1,2,3,4... 
        D
e|---------------------------|
B|---------------------------|
G|---------------------------| -> repete 2x antes de começar a cantar
D|-7-7-7-7-7-7-7-------------|
A|-5-5-5-5-5-5-5-------------|
E|---------------------------|
____________________________________________________________________________________________________
          D             D              G              D           A        G           D
e|---------------------------------------------------------------------------------------------|
B|---------------------------------------------------------------------------------------------|
G|---------------------------------------------------------------------------------------------| repete 2x
D|-7-7-7-7-7-7-7--7-7-7-7-7-7-7-----------------7-7-7-7-7-7-7--------------------7-7-7-7-7-7-7-|
A|-5-5-5-5-5-5-5--5-5-5-5-5-5-5--5-5-5-5-5-5-5--5-5-5-5-5-5-5--7-7-7-7--5-5-5-5--5-5-5-5-5-5-5-|
E|-------------------------------3-3-3-3-3-3-3-----------------5-5-5-5--3-3-3-3----------------|
 
Spider-man, Spider-man, does whatever a spider can,
Spins a web any size catches thieves just like flies, 
Look out... here comes the Spider-man
Is he strong? Listen up; he's got radioactive blood. 
Can he swing from a thread take a look over head.
Look out... here comes the Spider-man.
____________________________________________________________________________________________________

           F            C          G         D          
e|--------------------------------------------------|
B|--------------------------------------------------|
G|--------------------------------------------------|
D|--10--10--10--10---5-5-5-5-------------7-7-7-7----|
A|---8---8---8---8---3-3-3-3---5-5-5-5---5-5-5-5----|
E|-----------------------------3-3-3-3--------------|


          F             C         G         A
e|--------------------------------------------------|
B|--------------------------------------------------|
G|--------------------------------------------------|
D|--10--10--10--10---5-5-5-5------------------------|
A|---8---8---8---8---3-3-3-3---5-5-5-5---7-7-7-7----|
E|-----------------------------3-3-3-3---5-5-5-5----|

In the chill of the night at the scene of a crime, 
Like a streak of light he arrives just in time.
____________________________________________________________________________________________________

          D             D              G              D           A        G           D
e|---------------------------------------------------------------------------------------------|
B|---------------------------------------------------------------------------------------------|
G|---------------------------------------------------------------------------------------------|
D|-7-7-7-7-7-7-7--7-7-7-7-7-7-7-----------------7-7-7-7-7-7-7--------------------7-7-7-7-7-7-7-|
A|-5-5-5-5-5-5-5--5-5-5-5-5-5-5--5-5-5-5-5-5-5--5-5-5-5-5-5-5--7-7-7-7--5-5-5-5--5-5-5-5-5-5-5-|
E|-------------------------------3-3-3-3-3-3-3-----------------5-5-5-5--3-3-3-3----------------|


Spider-man, Spider-man friendly neighborhood Spider-man, 
Wealth and fame he's ignored, action is his reward. 
Look out here comes the Spider-man. 
____________________________________________________________________________________________________

          D             D              G              D           A        G           D
e|---------------------------------------------------------------------------------------------|
B|---------------------------------------------------------------------------------------------|
G|---------------------------------------------------------------------------------------------|
D|-7-7-7-7-7-7-7--7-7-7-7-7-7-7-----------------7-7-7-7-7-7-7--------------------7-7-7-7-7-7-7-|
A|-5-5-5-5-5-5-5--5-5-5-5-5-5-5--5-5-5-5-5-5-5--5-5-5-5-5-5-5--7-7-7-7--5-5-5-5--5-5-5-5-5-5-5-|
E|-------------------------------3-3-3-3-3-3-3-----------------5-5-5-5--3-3-3-3----------------|

Look out!
Let's go!

solo: (a base vai continua fazendo o (D D G D A G D) 

e|-----------------------------------------------------------------------------------------------|
B|-----------------------------------------------------------------------------------------------|
G|---------14-14-13----------------14-14-13----------------------------------------14-14-13------|
D|--12-12------------15-12---12-12----------15-12-----------12-12-11---------12-12---------15-12-|
A|---------------------------------------------------10-10-----------13-10-----------------------|
E|-----------------------------------------------------------------------------------------------|
____________________________________________________________________________________________________

           F            C          G         D          
e|--------------------------------------------------|
B|--------------------------------------------------|
G|--------------------------------------------------|
D|--10--10--10--10---5-5-5-5-------------7-7-7-7----|
A|---8---8---8---8---3-3-3-3---5-5-5-5---5-5-5-5----|
E|-----------------------------3-3-3-3--------------|


          F             C         G         A
e|--------------------------------------------------|
B|--------------------------------------------------|
G|--------------------------------------------------|
D|--10--10--10--10---5-5-5-5------------------------|
A|---8---8---8---8---3-3-3-3---5-5-5-5---7-7-7-7----|
E|-----------------------------3-3-3-3---5-5-5-5----|


In the chill of night at the scene of a crime, 
Like a streak of light he arrives just in time. 
____________________________________________________________________________________________________

          D             D              G              D           A        G        D
e|---------------------------------------------------------------------------------------------
B|---------------------------------------------------------------------------------------------
G|---------------------------------------------------------------------------------------------
D|-7-7-7-7-7-7-7--7-7-7-7-7-7-7-----------------7-7-7-7-7-7-7--------------------7-7-7-7-------
A|-5-5-5-5-5-5-5--5-5-5-5-5-5-5--5-5-5-5-5-5-5--5-5-5-5-5-5-5--7-7-7-7--5-5-5-5--5-5-5-5-------
E|-------------------------------3-3-3-3-3-3-3-----------------5-5-5-5--3-3-3-3----------------

     G        D        G        D
--------------------------------------------------------|
--------------------------------------------------------|
--------------------------------------------------------|
-----------7-7-7-7-----------7-7-7-7--------------------|
--5-5-5-5--5-5-5-5--5-5-5-5--5-5-5-5--------------------|
--3-3-3-3-----------3-3-3-3-----------------------------|

Spider-man, Spider-man, friendly neighborhood Spider-man, 
Wealth and fame he's ignored action is his reward.
To him life is a great big bang up 
When ever there's a hang up, 
You'll find the Spider-man! 
Man.
Composição de Paul Francis Webster / Robert Harris
Colaboração e revisão:
  • Douglas Prado
5.801 exibições
    • ½ Tom
    • A
    • Bb
    • B
    • C
    • Db
    • D
    • Eb
    • E
    • F
    • F#
    • G
    • Ab
  • Adicionar à lista

    0 comentários

    Mostrar mais comentários

    Conseguiu tocar?

    0 Tocaram 0 Ainda não

    Grave um vídeo tocando Spiderman e mande pra gente!

    00:00 / 00:00
    outros vídeos desta música
    repetir qualidade Automático
    Outros vídeos desta música
    00:00 / 00:00
    Automático

    Cifra Club Pro

    Aproveite o Cifra Club com benefícios exclusivos e sem anúncios
    Cifra Club Pro
    Aproveite o Cifra Club com benefícios exclusivos e sem anúncios
    OK