Cifra Club

Aprenda

The Crusher

Ramones

Tab de baixo: Principal
Intro e Verso 
G-------------------------------------------
D-------------------------------------------
A-7-7777--10-9--5-4-3-3333------------------
E----------------------------5-5555---------

Pré-Chorus
G-------------------------------------------
D-------------------------------------------
A-22222222--555555555-----------------------
E----------------------55555----------------

G-------------------------------------------
D-------------------------------------------
A-22222222--55555555555555------------------
E-------------------------------------------

Chorus
G-------------------------------------------
D-------------------------------------------
A-7-7777--10-9--5-4-3-3333------------------
E----------------------------5-5555---------


Bridge
G-------------------------------------------
D-------------------------------------------
A-7-7777--10-9--5-4-3-3333------------------
E----------------------------5-5555---------
Composição de Daniel Rey / Dee Dee Ramone
Colaboração e revisão:
  • Bruno Fernandes
3.362 exibições

0 comentários

Mostrar mais comentários

Conseguiu tocar?

1 Tocaram 0 Ainda não

Grave um vídeo tocando The Crusher e mande pra gente!

00:00 / 00:00
outros vídeos desta música
repetir qualidade Automático
Outros vídeos desta música
00:00 / 00:00
Automático
OK