Cifra Club

Aprenda

What'D Ya Do?

Ramones

Tab de baixo: Principal
(intro 2x)            
G-------------------------|
D-------------------------|
A-0-0-----7-7-7-7-7-7-7-7-|
E-----3-3-----------------|  

(verso 3x)             
G-------------------------|---------------------------------------|
D-------------------------|---------------------------------------|
A-0-0-----7-7-7-7-7-7-7-7-|---------7-7-7-7---------7-7-7-7-7-7-7-|
E-----3-3-----------------|-1-1-1-1---------1-1-1-1---------------|

                            
G-----------------------------|---------------------------------------|
D-----------------------------|---------------------------------------|
A-0-0-----6/7-7-7-7-6/7-7-7-7-|---------7-7-7-7---------7-7-7-7-7-7-7-|
E-----3-3---------------------|-1-1-1-1---------1-1-1-1---------------|

(verso 2 - 3x)           
G--------------------|-------------------------|
D--------------------|-------------------------|
A-0-0-----0--0-0-----|-0-0---------------------|
E-----3-3--------3-3-|-----3-3-1-1-1-1-1-1-1-1-| 

                 
G--------------------|-------------------------|
D--------------------|-------------------------|
A-0-0-----0--0-0-----|-0-0---------------------|
E-----3-3--------3-3-|-----3-3-1-1-1-1-1-1-1-1-|

(solo)         
G-------------------|-----------------------------------------|
D-------------------|-----------------------------------------|
A-0-0------0-0------|---------7-7-7-7---------7-7-7-7-7-7-7-7-|
E------3-3------3-3-|-1-1-1-1---------1-1-1-1-----------------|
            
G------------------|-----------------|
D------------------|-----------------|
A-0-0-----0-0------|-7-7-7-7-7-7-7-7-|
E-----3-3------3-3-|-----------------|

(verso)           
G-------------------------|---------------------------------------|
D-------------------------|---------------------------------------|
A-0-0-----7-7-7-7-7-7-7-7-|---------7-7-7-7---------7-7-7-7-7-7-7-|
E-----3-3-----------------|-1-1-1-1---------1-1-1-1---------------|

G-----------------------------|
D-----------------------------|
A-0-0-----6/7-7-7-7-6/7-7-7-7-|
E-----3-3---------------------|
Composição de Joey Ramone
Colaboração e revisão:
  • Paulo Ricardo
121 exibições

0 comentários

Mostrar mais comentários

Conseguiu tocar?

0 Tocaram 0 Ainda não

Grave um vídeo tocando What'D Ya Do? e mande pra gente!

00:00 / 00:00
outros vídeos desta música
repetir qualidade Automático
Outros vídeos desta música
00:00 / 00:00
Automático

Cifra Club Pro

Aproveite o Cifra Club com benefícios exclusivos e sem anúncios
7 dias grátis
Cifra Club Pro
Aproveite o Cifra Club com benefícios exclusivos e sem anúncios
7 dias grátis
OK