Cifra Club

Aprenda

Ruby Soho

Rancid

Cifra: Principal (violão e guitarra)
Já pensou em usar uma coleção de roupas do Cifra Club? Responda as perguntas abaixo e nos ajude nessa missão! →
tom: G
INTRO: Gii F#ii Eii D
       G B C G
       G B C G
 
VERSE: (palm muted)

C          D                G               C
Echoes of reggae comin through my bedroom wall
C                D               G                 C
Havin a party up next door but i'm sittin here all alone
C                D                  G              C
Two lovers in the bedroom and the other starts to shout
C                 G              D
All i got is this blank stare and that don't carry no clout at all

CHORUS:

G    B         C     G
Destination    unknown
G    B         C     G
Ruby ruby ruby ruby soho

Verse2:
He's singin and she's there to lend a hand
He's seen his name on the marquee but she will never understand
Once again he's leavin and she's there with a tear in her eye
Embraces with a warm gesture it's time, time to say goodbye

CHORUS

 Interlude:   C ,C, Bb, C, w/short improv solos
E|--3^-3^-3-3-3-3-3-3--------------------------------------------|
B|---------------------------------------------------------------|
G|---------------------------------------------------------------|
D|---------------------------------------------------------------|
A|---------------------------------------------------------------|
E|---------------------------------------------------------------|

Verse3:
Ruby's heart ain't beatin cause she knows the feelin is gone
She's not the only one who knew there's somethin wrong
Little lover's in the distance as she wipes a tear from her eye
Ruby's fading out she disappears, it's time, time to say goodbye

CHORUS
CHORUS

chords:
E|---------------------------------------------------
B|-------8---------7-------5-------------------------
G|-12----7---11----6---9---4-------4---5---7-------3-
D|-12----5---11----4---9---2---5---4---5---7---7---3-
A|-10-or-----9--or-----7-or----5---2---3---5---7---1-
E|-----------------------------3---------------5-----
   Gii       F#ii      Eii     G   B   C   D   A   Bb
Composição de Lars Frederiksen / Matt Freeman / Tim Armstrong
Colaboração e revisão:
  • william rodrigues
  • Marcello Maccarini
22.477 exibições
    • ½ Tom
    • A
    • Bb
    • B
    • C
    • Db
    • D
    • Eb
    • E
    • F
    • F#
    • G
    • Ab
  • Adicionar à lista

    0 comentários

    Ver todos os comentários

    Conseguiu tocar?

    2 Tocaram 0 Ainda não

    Grave um vídeo tocando Ruby Soho e nos envie!

    00:00 / 00:00
    outros vídeos desta música
    repetir qualidade Automático
    Outros vídeos desta música
    00:00 / 00:00
    Automático

    Cifra Club Pro

    Aproveite o Cifra Club com benefícios exclusivos e sem anúncios
    Cifra Club Pro
    Aproveite o Cifra Club com benefícios exclusivos e sem anúncios
    OK