Cifra Club

Over The Edge

Ratt

Cifra: Principal (violão e guitarra)
Selo Cifra Club: esta cifra foi revisada para atender aos critérios oficiais da nossa Equipe de Qualidade.
tom: G
E|--------------------------------------|
B|--------------------------------------|
G|--------------------------0-----------|
D|------5-----3-----------3---3p0-------|
A|----5-----3---------------------3p0---|
E|--5-----3-----0-----------------------|

E|--------------------------------------|
B|--------------------------------------|
G|--------------------------0-----------|
D|------3-----5-----------3---3p0-------|
A|----3-----5---------------------3p0---|
E|--3-----5-----0-----------------------|

E|--------------------------------------|
B|--------------------------------------|
G|--------------------------0-----------|
D|------5-----3-----------3---3p0-------|
A|----5-----3---------------------3p0---|
E|--5-----3-----0-----------------------|

E|--------------------------------------|
B|--------------------------------------|
G|--------------------------------------|
D|------3-----5-------------------------|
A|----3-----5---------------------------|
E|--3-----5------0----------------------|

(add effects)
x2
E|--------------------------------------|
B|--------------------------------------|
G|--------------------------0-----------|
D|------5-----3-----------3---3p0-------|
A|----5-----3---------------------3p0---|
E|--5-----3-----0-----------------------|

E|--------------------------------------|
B|--------------------------------------|
G|--------------------------0-----------|
D|------3-----5-----------3---3p0---0---|
A|----3-----5---------------------3-----|
E|--3-----5-----0-----------------------|


[Verse 1]
x4
E|--------------------------------------|
B|-------------3------------3----3------|
G|-------------2------------2----2------|
D|---5----3----0------------0----0------|
A|---5----3-----------------------------|
E|---5----3-----------------------------|

E|--------------------------------------|
B|-------------3------------3----3------|
G|-------------2------------2----2------|
D|---3----5----0------------0----0------|
A|---3----5-----------------------------|
E|---3----5-----------------------------|


[Bridge]
x2
E|--------------------------------------|
B|--------------------------------------|
G|--------------------------------------|
D|--------------------------------------|
A|---3h5--5p3--5p3----5-5p3--5p3--0-----|
E|--------------------------------------|

E|--------------------------------------|
B|--------------------------------------|
G|--------------------------------------|
D|---------------------------------0----|
A|-------------------------------3------|
E|---3h5--5p3--5p3----5-5p3--5p3--------|


[Chorus]

E|----3-----------2----------2---2------|
B|----3-----------3----------3---3------|
G|----0-----0-----2----------2---2------|
D|----2-----0-----0----------0---0------|
A|----3-----0---------------------------|
E|--------------------------------------|

E|----3-----------2----------2---2------|
B|----3-----------3----------3---3------|
G|----0-----0-----2----------2---2------|
D|----2-----0-----0----------0---0------|
A|----3-----0---------------------------|
E|--------------------------------------|

E|----3-----------2----------2---2------|
B|----3-----------3----------3---3------|
G|----0-----0-----2----------2---2------|
D|----2-----0-----0----------0---0------|
A|----3-----0---------------------------|
E|--------------------------------------|

E|----3-----3-----3---------------------|
B|----3-----3-----3---------------------|
G|----0-----0-----0---------------------|
D|----2-----2-----2---------------------|
A|----3-----3-----3---------------------|
E|--------------------------------------|
Outros vídeos desta música
    14 exibições
      • ½ Tom
      • A
      • Bb
      • B
      • C
      • Db
      • D
      • Eb
      • E
      • F
      • F#
      • G
      • Ab
    • Adicionar à lista

    Afinação da cifra

    Afinador online

      0 comentários

      Ver todos os comentários

      Entre para o Cifra Club PRO

      Tenha acesso a benefícios exclusivos no App e no Site

      • Chega de anúncios

      • Mais recursos no app do Afinador

      • Atendimento Prioritário

      • Aumente seu limite de lista

      • Ajude a produzir mais conteúdo

      Cifra Club Pro

      Aproveite o Cifra Club com benefícios exclusivos e sem anúncios
      Cifra Club Pro
      Aproveite o Cifra Club com benefícios exclusivos e sem anúncios
      OK