Cifra Club

Olhos Certos

Ratto

Cifra: Principal (violão e guitarra)
tom: D
(intro)  

C#m           A7M  C#m            A7M  C#m           A7M       A7M       A7M

E|--4-5-5/7-5-4--------4-5-5/7-5-4---------4-5-5/7-5-4----------------------------|
B|-5------------5-----5------------5------5-----------5-----5----5/7-5-----5/7-5--|
G|--------------------------------------------------------------------------------|
D|--------------------------------------------------------------------------------|
A|--------------------------------------------------------------------------------|
E|--------------------------------------------------------------------------------|

 C#m            A7M
Tento te encontrar
 C#m           A7M
tanto pra dizer
 C#m        A7M
meu amor , tudo bem

 C#m          A7M
sorte de nós dois
       C#m          A7M
quero te fazer feliz
 C#m         A7M
meu amor , sempre quis

 C#m                             A7M
seus olhos certos mas não sei o que dizer
 F#7                 A7M
eu não vou, mas o tempo vem
  C#m                          A7M
  tá tudo certo mais não sei o que dizer
F#7                   A7M         C#m
eu não vou, mas o tempo vem aqui .

mesmo sem te ver
não chegou ao fim
seu amor , tudo em mim .

E       B      C#m         A7M
Se não for mais do que tento ser
E        B       A
se não for mais .

C#m                             A7M
seus olhos certos mas não sei o que dizer
 F#7                 A7M
eu não vou, mas o tempo vem
  C#m                          A7M
  tá tudo certo mais não sei o que dizer
F#7                   A7M         C#m
eu não vou, mas o tempo vem aqui .

  C#m   B  C#m  A7M

E|------------------|
B|-5-----4--5-------| (4x)
G|---------------6--|
D|------------------|
A|------------------|
E|------------------|
00:00 / 00:00
Outros vídeos desta música
Repetir
Outros vídeos desta música
Composição de Rodrigo Netto / Tico Santa Cruz
Colaboração e revisão:
  • Pedro Souza
37.498 exibições
    • ½ Tom
    • A
    • Bb
    • B
    • C
    • Db
    • D
    • Eb
    • E
    • F
    • F#
    • G
    • Ab
  • Adicionar à lista

    0 comentários

    Ver todos os comentários

    Conseguiu tocar?

    0 Tocaram 0 Ainda não

    Grave um vídeo tocando Olhos Certos e nos envie!

    Entre para oCifra Club PRO

    Tenha acesso a benefícios exclusivos no App e no Site

    • Chega de anúncios

    • Prioridade de compra em lançamentos

    • Mais recursos no app do Afinador

    • Atendimento Prioritário

    • Descontos nos produtos Cifra Club

    • Ajude a produzir mais conteúdo

    00:00 / 00:00

    Cifra Club Pro

    Aproveite o Cifra Club com benefícios exclusivos e sem anúncios
    Cifra Club Pro
    Aproveite o Cifra Club com benefícios exclusivos e sem anúncios
    OK