Cifra Club

Aprenda

Algún Dia

RBD

Cifra: Principal (violão e guitarra)
Tom: A#
Intro: Eb G# Eb G# 
 
E|-11------------------------|-11----------------------------------
B|----11/6-6h8---9b-6h8-8b---|----11/6--6h8----9b~6h8~~------------
G|-------------8-----------8-|--------------8b---------------------
D|---------------------------|-------------------------------------
A|---------------------------|-------------------------------------
E|---------------------------|-------------------------------------

 Eb9 
Voy encontrarme en tu mirada  
 G#7+ 
Y sentirme enamorada
 Eb9                     G#7+
Era menos fragil junto a ti 
 G4        G          Cm            Bb 
Pero todo era mentira, te marchaste de mi vida 
 F         G#       Bb 
Y me perdi, y me perdi 
 
 Eb9 
Si revivo tu recuerdo 
 G#7+ 
Me hace daños se te pienso 
 Eb9                        G#7+ 
Estoy triste, pero estoy de pie 
 G4             G     
Aunque me hayas olvidado 
       Cm             Bb     F 
Se que tarde o mas temprano, pasa a entender 
 G#          Bb 
o cuanto te ame 
 
(Refrão) 
      Eb 
Algun dia sin pernsarlo 
       G# 
Me vas a extrañar despacio 
       Fm         G          Cm           Bb
Algun dia , una mañana sentiras q te hago falta 
  G#      Bb           Eb7    G# 
En tu interior, vas a sentir amor 
Fm                        
Nadie sabe lo que tiene,  
G#             Bb 
Hasta que al final

E|--------------|
B|--8h9-8-9h11~-|
G|--------------|
D|--------------|
A|--------------|
E|--------------|
 
   Eb   G# Eb G# ( intro )
Lo pierde  
 Eb9 
Cada vez que vuelvo a verte 
 G#7+ 
No, lo niego aún me duele 
 Eb9                      G#7+ 
Pero sé que un dia estaré bien 
 G4             G     
Aunque me hayas olvidado 
       Cm             Bb     F 
Se que tarde o mas temprano, pasa a entender 
 G#          Bb ...
o cuanto te ame êeeeeee

   Eb 
Algun dia sin pernsarlo 
       G# 
Me vas a extrañar despacio 
       Fm         G          Cm           Bb
Algun dia , una mañana sentiras q te hago falta 
  G#      Bb           Eb7    G# 
En tu interior, vas a sentir amor 
Fm                        
Nadie sabe lo que tiene,  
G#             Bb ... Eb   G# Eb G# 
Hasta que al final lo pierde 

(solo)
base:Eb  G#  Fm G#  A#

    Eb                               G#
E|-----------------------------------10h11p10-11----------------|
B|--8h9-8-9h11~-8h9p8--6-------6-8-9-------------11--11-9-8-9-8-|
G|------------------------8-------------------------------------|
D|---------------------------8----------------------------------|
A|--------------------------------------------------------------|
E|--------------------------------------------------------------|

  Fm                                                  G#      A#
E|-------------8h9p8~~-|-8-9-8------------------------13-13t-13b(14)-13t--|
B|-8-9-8-9-8-9---------|-------11-9h11p9-11-9-8-9/11----------------------|
G|---------------------|--------------------------------------------------|
D|---------------------|--------------------------------------------------|
A|---------------------|--------------------------------------------------|
E|---------------------|--------------------------------------------------|

Obs.: a parte que está | | toca bem rápido,a sequência |-8-9-8-9-8-9-|.

  Eb 
Algun dia sin pernsarlo 
       G# 
Me vas a extrañar despacio 
       Fm         G          Cm           Bb
Algun dia , una mañana sentiras q te hago falta 
  G#      Bb           Eb7    G# 
En tu interior, vas a sentir amor 
Fm                        
Nadie sabe lo que tiene,  
G#             Bb 
Hasta que al final 

E|--10h11-10h11-10h11-8h10--11-10-8------------|
B|----------------------------------11-9-11----|
G|------------------------------------------12-|
D|---------------------------------------------|
A|---------------------------------------------|
E|---------------------------------------------|
   Eb   G# Eb G# ( intro )
Lo pierde. 

( dedilhado final )
E|-------4---------------4--------|
B|---4------4--------4------4-----|
G|-3---3------3----3---3------3---|
D|--------------5---------------5-|
A|--------------------------------|
E|--------------------------------|
Composição de Carlos Lara
Colaboração e revisão:
  • Renato Mestre
  • Ewerton Silva
  • Brenda Palhares
65.047 exibições
    • ½ Tom
    • A
    • Bb
    • B
    • C
    • Db
    • D
    • Eb
    • E
    • F
    • F#
    • G
    • Ab
  • Adicionar à lista

    0 comentários

    Mostrar mais comentários

    Conseguiu tocar?

    2 Tocaram 0 Ainda não

    Grave um vídeo tocando Algún Dia e mande pra gente!

    00:00 / 00:00
    outros vídeos desta música
    repetir qualidade Automático
    Outros vídeos desta música
    00:00 / 00:00
    Automático
    OK