Notificações Amigos pendentes

      RBD

      Salvame

      17.274 exibições
      [E   E   E   E   E   E   E   E]    
      C||-------|-------|-------|-------|--44--44--44--44--44--46--44--44--| 
      C||-------|-------|-------|-------|----------------------------------| 
      C||-------|-------|-------|-------|----------------------------------| 
      C||-------|-------|-------|-------|----------37--------------37------| 
      C||-------|-------|-------|-------|--35--------------35--------------| 
      C||-------|-------|-------|-------|----------------------------------| 
       
         [E   E   E   E   E   E   E   E      E   E   E   E   E   E   E   E]    
      --44--44--44--44--44--46--44--44--|--44--44--44--44--44--46--44--44--| 
      ----------------------------------|----------------------------------| 
      ----------------------------------|----------------------------------| 
      ----------37--------------37------|----------37--------------37------| 
      --35--------------35--------------|--35--------------35--------------| 
      ----------------------------------|----------------------------------| 
       
         [E   E   E   E   E   E   E   E]      W                                      
      --44--44--44--44--44--46--44--49--|--46----------------|-------------------| 
      ----------------------------------|--------------------|-------------------| 
      ----------------------------------|--------------------|-------------------| 
      ----------37--------------37------|--------------------|-------------------| 
      --35--------------35--------------|--------------------|-------------------| 
      ----------------------------------|--------------------|-------------------| 
       
      -------------------|-------------------|-------------------|-------------------| 
      -------------------|-------------------|-------------------|-------------------| 
      -------------------|-------------------|-------------------|-------------------| 
      -------------------|-------------------|-------------------|-------------------| 
      -------------------|-------------------|-------------------|-------------------| 
      -------------------|-------------------|-------------------|-------------------| 
       
                                                 [E   E   E   E   E   E   E   E]    
      -------------------|-------------------|--42--42--42--42--42--46--42--42--| 
      -------------------|-------------------|----------------------------------| 
      -------------------|-------------------|----------------------------------| 
      -------------------|-------------------|----------40--------------40------| 
      -------------------|-------------------|--36--------------36--------------| 
      -------------------|-------------------|----------------------------------| 
       
         [E   E   E   E   E   E   E   E      E   E   E   E   E   E   E   E]    
      --42--42--42--42--42--46--42--42--|--42--42--42--42--42--46--42--42--| 
      ----------------------------------|----------------------------------| 
      ----------------------------------|----------------------------------| 
      ----------40--------------40------|----------40--------------40------| 
      --36--------------36--------------|--36--------------36--------------| 
      ----------------------------------|----------------------------------| 
       
         [E   E   E   E   E   E   E]   S  S     [E   E   E   E   E   E   E   E]    
      --42--42--42--42--42----------------|--46--42--42--42--42--46--42--42--| 
      ------------------------------------|----------------------------------| 
      ------------------------------------|----------------------------------| 
      ----------40----------40------40-40-|----------40--------------40------| 
      --36--------------36------36--------|--36--------------36--------------| 
      ------------------------------------|----------------------------------| 
       
         [E   E   E   E   E   E   E   E      E   E   E   E   E   E   E   E]    
      --42--42--42--42--42--46--42--42--|--42--42--42--42--42--46--42--42--| 
      ----------------------------------|----------------------------------| 
      ----------------------------------|----------------------------------| 
      ----------40--------------40------|----------40--------------40------| 
      --36--------------36--------------|--36--------------36--------------| 
      ----------------------------------|----------------------------------| 
       
         [E   E   E   E   E   E   E]   S  S     [E   E   E   E   E   E   E   E]    
      --42--42--42--42--42--46--46--46----|--46--42--42--42--42--46--42--42--| 
      ------------------------------------|----------------------------------| 
      ------------------------------------|----------------------------------| 
      ----------40------40-------------40-|----------40--------------40------| 
      --36------------------36--36--36----|--36--------------36--------------| 
      ------------------------------------|----------------------------------| 
       
         [E   E   E   E   E   E   E   E      E   E   E   E   E   E   E   E]    
      --42--42--42--42--42--46--42--42--|--42--42--42--42--42--46--42--42--| 
      ----------------------------------|----------------------------------| 
      ----------------------------------|----------------------------------| 
      ----------40--------------40------|----------40--------------40------| 
      --36--------------36--------------|--36--------------36--------------| 
      ----------------------------------|----------------------------------| 
       
         [E   E   E   E   E   E   E]   S  S     [E   E   E   E   E   E   E   E]    
      --42--42--42--42--42--46--46--46----|--46--42--42--42--42--46--42--42--| 
      ------------------------------------|----------------------------------| 
      ------------------------------------|----------------------------------| 
      ----------40------40------40--40-40-|----------40--------------40------| 
      --36--------------------------------|--36--------------36--------------| 
      ------------------------------------|----------------------------------| 
       
         [E   E   E   E   E   E   E   E      E   E   E   E   E   E   E   E]    
      --42--42--42--42--42--46--42--42--|--42--42--42--42--42--46--42--42--| 
      ----------------------------------|----------------------------------| 
      ----------------------------------|----------------------------------| 
      ----------40--------------40------|----------40--------------40------| 
      --36--------------36--------------|--36--------------36--------------| 
      ----------------------------------|----------------------------------| 
       
         [E   E   E   E   E]   S  S  S  S  S  S     [E   E   E   E   E   E   E   E]    
      --42--42--42--42--42--42----------------|--46--44--44--44--44--46--44--44--| 
      ----------------------------------------|----------------------------------| 
      ----------------------------------48-48-|----------------------------------| 
      ----------40-------------40-40-40-------|----------37--------------37------| 
      --36--------------36--------------------|--35--------------35--------------| 
      ----------------------------------------|----------------------------------| 
       
         [E   E   E   E   E   E   E   E      E   E   E   E   E   E   E   E]    
      --44--44--44--44--44--46--44--44--|--44--44--44--44--44--46--44--44--| 
      ----------------------------------|----------------------------------| 
      ----------------------------------|----------------------------------| 
      ----------37--------------37------|----------37--------------37------| 
      --35--------------35--------------|--35--------------35--------------| 
      ----------------------------------|----------------------------------| 
       
         [E   E   E   E   E   E   E   E      E   E   E   E   E   E   E   E]    
      --44--44--44--44--44--46--44--44--|--44--44--44--44--44--46--44--44--| 
      ----------------------------------|----------------------------------| 
      ----------------------------------|----------------------------------| 
      ----------37--------------37------|----------37--------------37------| 
      --35--------------35--------------|--35--------------35--------------| 
      ----------------------------------|----------------------------------| 
       
         [E   E   E   E   E   E   E   E      E   E   E   E   E   E   E   E]    
      --44--44--44--44--44--46--44--44--|--44--44--44--44--44--46--44--44--| 
      ----------------------------------|----------------------------------| 
      ----------------------------------|----------------------------------| 
      ----------37--------------37------|----------37--------------37------| 
      --35--------------35--------------|--35--------------35--------------| 
      ----------------------------------|----------------------------------| 
       
         [E   E   E   E   E   E   E   E      E   E   E   E   E   E   E   E]    
      --44--44--44--44--44--46--44--44--|--42--42--42--42--42--46--42--42--| 
      ----------------------------------|----------------------------------| 
      ----------------------------------|----------------------------------| 
      ----------37--------------37------|----------40--------------40------| 
      --35--------------35--------------|--36--------------36--------------| 
      ----------------------------------|----------------------------------| 
       
         [E   E   E   E   E   E   E   E      E   E   E   E   E   E   E   E]    
      --42--42--42--42--42--46--42--42--|--42--42--42--42--42--46--42--42--| 
      ----------------------------------|----------------------------------| 
      ----------------------------------|----------------------------------| 
      ----------40--------------40------|----------40--------------40------| 
      --36--------------36--------------|--36--------------36--------------| 
      ----------------------------------|----------------------------------| 
       
         [E   E   E]   S  S  S  S  [E   E  E      E   E   E   E   E   E   E   E]    
      --42--42--42--42----42---------------|--46--42--42--42--42--46--42--42--| 
      -------------------------------------|----------------------------------| 
      -------------------------------------|----------------------------------| 
      ----------40--------------40---------|----------40--------------40------| 
      --36----------36-36----36-----36-----|--36--------------36--------------| 
      -------------------------------------|----------------------------------| 
       
         [E   E   E   E   E   E   E   E      E   E   E   E   E   E   E   E]    
      --42--42--42--42--42--46--42--42--|--42--42--42--42--42--46--42--42--| 
      ----------------------------------|----------------------------------| 
      ----------------------------------|----------------------------------| 
      ----------40--------------40------|----------40--------------40------| 
      --36--------------36--------------|--36--------------36--------------| 
      ----------------------------------|----------------------------------| 
       
         [E   E   E   E   E   E   E]   S  S     [E   E   E   E   E   E   E   E]    
      --42--42--42--42--42--46--46--46----|--46--42--42--42--42--46--42--42--| 
      ------------------------------------|----------------------------------| 
      ------------------------------------|----------------------------------| 
      ----------40------40-------------40-|----------40--------------40------| 
      --36------------------36--36--36----|--36--------------36--------------| 
      ------------------------------------|----------------------------------| 
       
         [E   E   E   E   E   E   E   E      E   E   E   E   E   E   E   E]    
      --42--42--42--42--42--46--42--42--|--42--42--42--42--42--46--42--42--| 
      ----------------------------------|----------------------------------| 
      ----------------------------------|----------------------------------| 
      ----------40--------------40------|----------40--------------40------| 
      --36--------------36--------------|--36--------------36--------------| 
      ----------------------------------|----------------------------------| 
       
         [E   E   E   E   E]   S  S  T  T  T  T  S  S   
      --42--42--42--42--42--------------------------| 
      ----------------------------------------------| 
      ----------------------------------------------| 
      ----------40------40--40-40-40-40-40-40-48-48-| 
      --36------------------------------------------| 
      ----------------------------------------------| 
       
         [E   E   E   E   E   E   E   E      E   E   E   E   E   E   E   E]    
      --46--42--42--42--42--46--42--42--|--42--42--42--42--42--46--42--42--| 
      ----------------------------------|----------------------------------| 
      ----------------------------------|----------------------------------| 
      ----------40--------------40------|----------40--------------40------| 
      --36--------------36--------------|--36--------------36--------------| 
      ----------------------------------|----------------------------------| 
       
         [E   E   E   E   E   E   E   E]    
      --42--42--42--42--42--46--42--42--| 
      ----------------------------------| 
      ----------------------------------| 
      ----------40--------------40------| 
      --36--------------36--------------| 
      ----------------------------------| 
       
         [E   E   E   E   E]   X  X  X  X  X  X  X  X  [E]   S  S   
      --42--42--42--42--42------------------------------------| 
      --------------------------------------------------------| 
      --------------------------------------------------------| 
      ----------40----------40-40-40-40-40-40-40-40-----40----| 
      --36--------------36--------------------------36-----36-| 
      --------------------------------------------------------| 
       
         [E   E   E   E   E   E   E   E      E   E   E   E   E   E   E   E]    
      --46--42--42--42--42--46--42--42--|--42--42--42--42--42--46--42--42--| 
      ----------------------------------|----------------------------------| 
      ----------------------------------|----------------------------------| 
      ----------40--------------40------|----------40--------------40------| 
      --36--------------36--------------|--36--------------36--------------| 
      ----------------------------------|----------------------------------| 
       
         [E   E   E   E   E   E   E   E      E   E   E   E   E   E   E]   S  S   
      --42--42--42--42--42--46--42--42--|--42--42--42--42--42--46--46--46----| 
      ----------------------------------|------------------------------------| 
      ----------------------------------|------------------------------------| 
      ----------40--------------40------|----------40------40-------------40-| 
      --36--------------36--------------|--36------------------36--36--36----| 
      ----------------------------------|------------------------------------| 
       
         [E   E   E   E   E   E   E   E      E   E   E   E   E   E   E   E]    
      --46--42--42--42--42--46--42--42--|--42--42--42--42--42--46--42--42--| 
      ----------------------------------|----------------------------------| 
      ----------------------------------|----------------------------------| 
      ----------40--------------40------|----------40--------------40------| 
      --36--------------36--------------|--36--------------36--------------| 
      ----------------------------------|----------------------------------| 
       
         [E   E   E   E   E   E   E   E]    
      --42--42--42--42--42--46--42--42--| 
      ----------------------------------| 
      ----------------------------------| 
      ----------40--------------40------| 
      --36--------------36--------------| 
      ----------------------------------| 
       
         [E   E   E   E   E]   S  S  T  T  T  T  S  S   
      --42--42--42--42--42--------------------------| 
      ----------------------------------------------| 
      ----------------------------------------------| 
      ----------40------40--40-40-40-40-40-40-48-48-| 
      --36------------------------------------------| 
      ----------------------------------------------| 
       
         [E   E   E   E   E   E   E   E      E   E   E   E   E   E   E   E]    
      --46--42--42--42--42--46--42--42--|--42--42--42--42--42--46--42--42--| 
      ----------------------------------|----------------------------------| 
      ----------------------------------|----------------------------------| 
      ----------40--------------40------|----------40--------------40------| 
      --36--------------36--------------|--36--------------36--------------| 
      ----------------------------------|----------------------------------| 
       
         [E   E   E   E   E   E   E   E      E   E   E   E   E   E   E]   S  S   
      --42--42--42--42--42--46--42--42--|--42--42--42--42--42--46--46--46----| 
      ----------------------------------|------------------------------------| 
      ----------------------------------|------------------------------------| 
      ----------40--------------40------|----------40------40-------------40-| 
      --36--------------36--------------|--36------------------36--36--36----| 
      ----------------------------------|------------------------------------| 
       
         [E   E   E   E   E   E   E   E      E   E   E   E   E   E   E   E]           
      --46--42--42--42--42--46--42--42--|--42--42--42--42--42--46--42--42--|-----|| 
      ----------------------------------|----------------------------------|-----|| 
      ----------------------------------|----------------------------------|-----|| 
      ----------40--------------40------|----------40--------------40------|-----|| 
      --36--------------36--------------|--36--------------36--------------|-----|| 
      ----------------------------------|----------------------------------|-----||
        Composição: Max di Carlo / Pedro DamianColaboração e revisão:
        • kelly_rr

        Comentários 0

        140 .
        140 cancelar

        conseguiu tocar?

        covers

        Grave um vídeo tocando Salvame e mande pra gente!

        Ex.: http://www.youtube.com/watch?v=0IvSvIwGdwk
        ver covers de outras músicas »
        0:00 / 0:00

        Capítulos

          1 versão de violão dificuldade exibições contribuição e correção
          1 versão de guitarra dificuldade exibições contribuição e correção
          1 versão de cavaco dificuldade exibições contribuição e correção
          1 versão de teclado dificuldade exibições contribuição e correção
          1 versão de baixo exibições contribuição e correção
          1 versão de bateria exibições contribuição e correção
          2 versões de Guitar Proformatodownloadscontribuição
          1 versão de partiturasformatodownloadscontribuição
          play/pausefechar subir/descer velocidade
          6ª corda E5ª corda A4ª corda D3ª corda G2ª corda B1ª corda E
            acordes
            publicidade
            fechar
            ok