Cifra Club

Aprenda

Safe And Sound

Rebelution

Cifra: Principal (violão e guitarra)
Tom: B
Intro/Refrão:

E|-11-14-12----12-11--------------------11-12----11------|
B|-12----------------14-12-11--11-12-14-------14----12---|
G|-------------------------------------------------------|
D|-------------------------------------------------------|
A|-------------------------------------------------------|
E|-------------------------------------------------------|

E|-11-14-12----12-11--------------------11---------------|
B|-12----------------14-12-11--11-12-14------14---12-----|
G|-------------------------------------------------------|
D|-------------------------------------------------------|
A|-------------------------------------------------------|
E|-------------------------------------------------------|

Verso 2x:

G#m           C#m            F#
When we come down,
       B        Bb9               G#m
We'll be dreaming safe and sound
          C#m
You better know why
   F#         B    Bb9
Baby that's all I got,   (x1)

( G#m C#m ) 4x

(G#m               C#m       D#m)
This the kinda sound that you wanna hear,
This the kinda vibe that you wanna feel,
Well I'm the type of guy that you never fear,
You can do your thing then come near,
Maybe I'm,
I'm caught up in the thing that you know I like,
Check it one time, baby overnight?
See we can make a grand escape,
We can get high, baby break,
I'm all about the look that you're givin' me,
I'm all about the dance moves you're lettin' free,
Well I'm all about a sweet sounding loving spree,
So Listen for my melody,
And maybe I'm,
I'm caught up in the thing that you know I like,
Check it one time, baby overnight?
See we can make a grand escape,
We can roll high, by the way yeah yeah yeahh

Verse 2x:

   G#m           C#m            F#
And when we come down,
       B        Bb9               G#m
We'll be dreaming safe and sound
          C#m
You better know why
   F#         B    Bb9
Baby that's all I got, (x1)

( G#m C#m ) 4x

(G#m               C#m       D#m)
This the kinda sound that I wanna hear,
This the kinda vibe that I wanna feel,
Well you're the type of girl, baby on the real,
Check it one time, what's the deal?
Maybe I'm,
I'm caught up in the thing that you know I like,
Check it one time, baby overnight?
See we can make a grand escape,
Oh we can roll high, by the way

Verso final 2x:

   G#m           C#m            F#
And when we come down,
       B        Bb9               G#m
We'll be dreaming safe and sound
          C#m
You better know why
   F#         B    Bb9
Baby that's all I got,

(Repetir o solo inicial)
Composição de Rebelution
Colaboração e revisão:
  • Jamal Rahman
  • EderCampos
18.603 exibições
    • ½ Tom
    • A
    • Bb
    • B
    • C
    • Db
    • D
    • Eb
    • E
    • F
    • F#
    • G
    • Ab
  • Adicionar à lista

    0 comentários

    Mostrar mais comentários

    Conseguiu tocar?

    2 Tocaram 0 Ainda não

    Grave um vídeo tocando Safe And Sound e mande pra gente!

    00:00 / 00:00
    outros vídeos desta música
    repetir qualidade Automático
    Outros vídeos desta música
    00:00 / 00:00
    Automático

    Cifra Club Pro

    Aproveite o Cifra Club com benefícios exclusivos e sem anúncios
    7 dias grátis
    Cifra Club Pro
    Aproveite o Cifra Club com benefícios exclusivos e sem anúncios
    7 dias grátis
    OK