Cifra Club

Dark Necessities

Red Hot Chili Peppers

Cifra: Tab (violão e guitarra)
tom: Fm
[Intro]

E|---------------------------------------------------------------------------|
B|---------------------------------------------------------------------------|
G|---------------------------------------------------------------------------|
D|---10-10-10-10-10-10-10-10-10-10-10-10-10-10-10-10-------------------------|
A|---------------------------------------------------------------------------|
E|---------------------------------------------------------------------------|
    |P.M - - - - - - - - - - - - - - - - - - - - - -|

    ^This repeats all the way up to that funky bass line

    Then there's this second guitar part in the build-up intro
E|---------------------------------------------------------------------------------|
B|-------------------------------------------8-----------------11------------------|
G|---10--8--10--8--10-8--10--8--10--8--10-8----8--10--8--10-8------8--10--8--10-8--|
D|---------------------------------------------------------------------------------|
A|---------------------------------------------------------------------------------|
E|---------------------------------------------------------------------------------|


[Verse]

There's no guitar for the 1st half of the verse, but this comes in on the 2nd

E|-------------------------|    |---------------------|
B|-------------------------|    |---------------------|
G|-------------------------|    |------------------8~-|
D|--8h10-10-10-10-10-10-10-|x11 |--8h10-10-10-8h10----|
A|-------------------------|    |---------------------|
E|-------------------------|    |---------------------|
   |P.M - - - - - - - - - -|       |P.M - - - - -|
    (with wah)

E|-------------------------|   |------------------------|
B|-------------------------|   |------------------------|
G|-------------------------|   |--8h10-10-10-10-10-10~~-|
D|--8h10-10-10-10-10-10-10-|x3 |------------------------|
A|-------------------------|   |------------------------|
E|-------------------------|   |------------------------|
   |P.M - - - - - - - - - -|     |P.M - - - - - -|
    (with wah)


[Chorus]

I can't hear all of the chords, but I recognise a few of them, play these chords 
and you'll get away with it. It sounds pretty RHCP anyway.

E|---8-------8-------6------10------|
B|---8-------9-------8------11------|
G|---8-------8-------8------10------|
D|---10------10------8--------------|  x2
A|----------------------------------|
E|----------------------------------|
    ^Strum each chord for one bar, strum on 16th notes. 


[Verse 2]
[Chorus 2]

Piano thing

[Bridge]

E|----------------------------------------------------------------------|
B|--16-15-13-----14-13--------13-----------(13)~~-----------------------|      Instead of the (13) play
G|-----------15--------15-13-----15-13-10-------------------------------|      11th on the b string the
D|----------------------------------------------------------------------|x2    2nd time
A|----------------------------------------------------------------------|
E|----------------------------------------------------------------------| 
   ^This whole section has a tonne of chorus and reverb type stuff on it.
    You could do a lot of sliding or even whammy bar usage to get a sound 
    more like the recording (on top of a heap of chorus).

[Verse 3]
[Chorus 3]


[Outro/Solo]

This whole section has a lot of tremolo effects on it, if you've got a delay
pedal just turn up the repeats a lot, I think it has a bit of the 'phase' 
effect as well, not too sure tho. 

If you don't have any pedals you could get away with just picking each note 
a few extra times.

E|----------------------------------------------------------------------------|
B|--16-(16)-15-(15)-13-(13)---------------------------------------------------|
G|-------------------------15-(15)--------------------------------------------|
D|---------------------------------15h17--13h15-------------------------------| x4
A|-----------------------------------------------13h15--8h10--6h8-------------|
E|-----------------------------------------------------------------6h8--------|
   ^If you have a delay pedal or something that will do the job, don't play 
    the bracketed notes.

E|----------------------------------------------------------------------------------------------|
B|----------------------------------------------------------------------------------------------|
G|----------------------------------------------------------------------------------------------|
D|----------------------------------------------------------------------------------------------|
A|--6------------10-8h10-8h10-10----------------8h10-10-10-------------------8h10-10-10---------|
E|----8-8-8--8-8--------------------8-8-8-8-8-8------------8b10r8--8-8-8-8-8------------8-8-8-8-|
   ^add wah pedal from here to the end of the song.

E|-------------------------------------------------------------------------|
B|-------------------------------------------------------------------------|
G|-------------------------------10h12-10h12------------------10h12-10h12--|
D|----------------------10-10-10--------------10--10-10-10-10--------------|
A|--8-8-8-8----------------------------------------------------------------|
E|----------10-10-10-10----------------------------------------------------|

E|-----------------------------------------------------------|
B|-----------------------------------------------------------|
G|--------------------10h12-10h12-----------10-8-7-8---------|
D|--10b12r10-10-10-10--------------10-10-10----------10~~----|
A|-----------------------------------------------------------|
E|-----------------------------------------------------------|


************************************

| x   Mute note
| h   Hammer-on
| p   Pull-off
| r   Release
| t   Tapping
| b   Bend
| pb  Pre-bend
| pbr Pre-bend release
| /   Slide up
| \   Slide down
| ~   Vibrato
| P.M  Palm mute
|   Natural harmonic
| *   Pinch harmonic

************************************
Composição de Anthony Kiedis / Chad Smith / Josh Klinghoffer / Michael Flea Balzary
Colaboração e revisão:
  • omar jabbar
2.571 exibições
    • ½ Tom
    • Am
    • Bbm
    • Bm
    • Cm
    • C#m
    • Dm
    • Ebm
    • Em
    • Fm
    • F#m
    • Gm
    • G#m
  • Adicionar à lista

    0 comentários

    Ver todos os comentários
    00:00 / 00:00
    Outros vídeos desta música
    Repetir Qualidade Automático
    Outros vídeos desta música
    00:00 / 00:00
    Automático
    Capítulos
    • Tocando a música
    • Dicas Iniciais / Equipamentos
    • Tocando a Introdução
    • Introdução - Guitarra Base
    • Introdução - Guitarra Riff
    • Tocando a Primeira Parte
    • Primeira Parte
    • Primeira Parte (variação)
    • Acordes do Refrão
    • Tocando o Primeiro Refrão
    • Refrão - Parte 1 de 4
    • Refrão - Parte 2 de 4
    • Refrão - Parte 3 de 4
    • Refrão - Parte 4 de 4
    • Tocando Segunda Parte - Ponte
    • Ponte - Parte 1 de 2
    • Ponte - Parte 2 de 2
    • Tocando Terceira Parte - Solo
    • Solo Final - Parte 1 de 3
    • Solo Final - Parte 2 de 3
    • Solo Final - Parte 3 de 3
    • Encerramento
    • Ficha Técnica

    Cifra Club Pro

    Aproveite o Cifra Club com benefícios exclusivos e sem anúncios
    Cifra Club Pro
    Aproveite o Cifra Club com benefícios exclusivos e sem anúncios
    OK