Cifra Club

Death In Vannas

Refused

Cifra: Principal (violão e guitarra)
Selo Cifra Club: esta cifra foi revisada para atender aos critérios oficiais da nossa Equipe de Qualidade.
tom: D
Intro     0:25 - 0:37

E|-----------------------------------------------------------------|
B|-----------------------------------------------------------------|
G|-----------------------------------------------------------------|
D|-----------------------------------------------------------------|
A|-5-4-----0-----2-----4-----5-4-----0-----2-----4-----5-4-----0-2-|
E|-----2-4---2-4---2-4---2-4-----2-4---2-4---2-4---2-4-----2-4-----|
       . .   . .   . .   . .     . .   . .   . .   . .     . .

E|-------------------------------------------------------------------|
B|-------------------------------------------------------------------|
G|-------------------------------------------------------------------|
D|-------------------------------------------------------------------|
A|-5-4-----0-----2-----4-----5-4-----0-----2-----4-----5-4-----0-2-5-|
E|-----2-4---2-4---2-4---2-4-----2-4---2-4---2-4---2-4-----2-4-------|
       . .   . .   . .   . .     . .   . .   . .   . .     . .

Verse 1     0:37 - 1:02

E|-------------------------------------------------------------------------------------------------------|
B|-------------------------------------------------------------------------------------------------------|
G|-4---4---4---4-------------2---2---2-------------------------------------------------------------------|
D|-4---4---4---4---5-4-------2---2---2---5-4-------4-5---2---2---2---2---5-4-------5---5---5---5---5--4-5|
A|-2---2---2---2-------5-2---0---0---0-------5-2-5-------2---2---2---2-------5-2---5---5---5---5---5-----|
E|-------------------------------------------------------2---2---2---2-------------5---5---5---5---5-----|


E|-----------------------------------------------------------------------------------------------------------|
B|-----------------------------------------------------------------------------------------------------------|
G|---------4---4---4-------------2---2---2-------------------------------------------------------------------|
D|-4h5p4---4---4---4---5-4-------2---2---2---5-4-------4-5---2---2---2---2---5-4-------5---5---5---5---5-5-5-|
A|---------2---2---2-------5-2---0---0---0-------5-2-5-------2---2---2---2-------5-2---5---5---5---5---5-5-5-|
E|-----------------------------------------------------------2---2---2---2-------------5---5---5---5---5-5-5-|


Chorus     1:02 - 1:14

E|-----------------------------------------------------------------|
B|-----------------------------------------------------------------|
G|-----------------------------------------------------------------|
D|-----------------------------------------------------------------|
A|-5-4-----0-----2-----4-----5-4-----0-----2-----4-----5-4-----0-2-|
E|-----2-4---2-4---2-4---2-4-----2-4---2-4---2-4---2-4-----2-4-----|
       . .   . .   . .   . .     . .   . .   . .   . .     . .

E|-------------------------------------------------------------------|
B|-------------------------------------------------------------------|
G|-------------------------------------------------------------------|
D|-------------------------------------------------------------------|
A|-5-4-----0-----2-----4-----5-4-----0-----2-----4-----5-4-----0-2-5-|
E|-----2-4---2-4---2-4---2-4-----2-4---2-4---2-4---2-4-----2-4-------|
       . .   . .   . .   . .     . .   . .   . .   . .     . .


Verse 2     1:14 - 1:39

E|-------------------------------------------------------------------------------------------------------|
B|-------------------------------------------------------------------------------------------------------|
G|-4---4---4---4-------------2---2---2-------------------------------------------------------------------|
D|-4---4---4---4---5-4-------2---2---2---5-4-------4-5---2---2---2---2---5-4-------5---5---5---5---5--4-5|
A|-2---2---2---2-------5-2---0---0---0-------5-2-5-------2---2---2---2-------5-2---5---5---5---5---5-----|
E|-------------------------------------------------------2---2---2---2-------------5---5---5---5---5-----|


E|-----------------------------------------------------------------------------------------------------------|
B|-----------------------------------------------------------------------------------------------------------|
G|---------4---4---4-------------2---2---2-------------------------------------------------------------------|
D|-4h5p4---4---4---4---5-4-------2---2---2---5-4-------4-5---2---2---2---2---5-4-------5---5---5---5---5-5-5-|
A|---------2---2---2-------5-2---0---0---0-------5-2-5-------2---2---2---2-------5-2---5---5---5---5---5-5-5-|
E|-----------------------------------------------------------2---2---2---2-------------5---5---5---5---5-5-5-|


Verse 3     1:39 - 1:57

E|----------------------------------------------------------------------------------------|
B|----------------------------------------------------------------------------------------|
G|----------------------------------------------------------------------------------------|
D|-4-4-4-5-5-5-4-4-4-4-4-4-4-4--4-4-4-5-5-5-4-4-4-4-4-4-4-4--4-4-4-5-5-5-9-9-9-9-9-9-9-9--|
A|-4-4-4-5-5-5-4-4-4-4-4-4-4-4--4-4-4-5-5-5-4-4-4-4-4-4-4-4--4-4-4-5-5-5-9-9-9-9-9-9-9-9--|
E|-4-4-4-5-5-5-4-4-4-4-4-4-4-4--4-4-4-5-5-5-4-4-4-4-4-4-4-4--4-4-4-5-5-5-9-9-9-9-9-9-9-9--|

E|-------------------------------------------------------------------------------------------|
B|-------------------------------------------------------------------------------------------|
G|-------------------------------------------------------------------------------------------|
D|-9-9-9-10-10-10-3-3-3-3-3-3-3-3--2-2-2-3-3-3-0-0-0-0-0-0-0-0--2-2-2-3-3-3-2-2-2-2-2-0-0-0--|
A|-9-9-9-10-10-10-3-3-3-3-3-3-3-3--2-2-2-3-3-3-0-0-0-0-0-0-0-0--2-2-2-3-3-3-2-2-2-2-2-0-0-0--|
E|-9-9-9-10-10-10-3-3-3-3-3-3-3-3--2-2-2-3-3-3-0-0-0-0-0-0-0-0--2-2-2-3-3-3-2-2-2-2-2-0-0-0--|


Bridge     1:57 - 2:22

E|---------------------------------------------------------------|
B|---------------------------------------------------------------|
G|---------------------------------------------------------------|
D|---------------------------------------------------------------|
A|-4-----0-----2-----4-----5-4-----0-----2-----4-----5-4-----0-2-|
E|---2-4---2-4---2-4---2-4-----2-4---2-4---2-4---2-4-----2-4-----|
     . .   . .   . .   . .     . .   . .   . .   . .     . .

E|-------------------------------------------------------------------|
B|-------------------------------------------------------------------|
G|-------------------------------------------------------------------|
D|-------------------------------------------------------------------|
A|-5-4-----0-----2-----4-----5-4-----0-----2-----4-----5-4-----0-2-5-|
E|-----2-4---2-4---2-4---2-4-----2-4---2-4---2-4---2-4-----2-4-------|
       . .   . .   . .   . .     . .   . .   . .   . .     . .

E|---------------------------------------------------------------|
B|---------------------------------------------------------------|
G|---------------------------------------------------------------|
D|---------------------------------------------------------------|
A|-4-----0-----2-----4-----5-4-----0-----2-----4-----5-4-----0-2-|
E|---2-4---2-4---2-4---2-4-----2-4---2-4---2-4---2-4-----2-4-----|
     . .   . .   . .   . .     . .   . .   . .   . .     . .

E|-----------------------------------------|
B|-----------------------------------------|
G|-----------------------------------------|
D|-----------------------------------0-0-0-|
A|-5-4-----0-----2-----4-----5-4-----0-2-0-|
E|-----2-4---2-4---2-4---2-4-----2-4-0-0-0-|
       . .   . .   . .   . .     . .   

Breakdown Chorus [NO GUITAR]    2:22 - 2:34

Chorus     2:34 - End

E|-----------------------------------------------------------------|
B|-----------------------------------------------------------------|
G|-----------------------------------------------------------------|
D|-----------------------------------------------------------------|
A|-5-4-----0-----2-----4-----5-4-----0-----2-----4-----5-4-----0-2-|
E|-----2-4---2-4---2-4---2-4-----2-4---2-4---2-4---2-4-----2-4-----|
       . .   . .   . .   . .     . .   . .   . .   . .     . .

E|-------------------------------------------------------------------|
B|-------------------------------------------------------------------|
G|-------------------------------------------------------------------|
D|-------------------------------------------------------------------|
A|-5-4-----0-----2-----4-----5-4-----0-----2-----4-----5-4-----0-2-5-|
E|-----2-4---2-4---2-4---2-4-----2-4---2-4---2-4---2-4-----2-4-------|
       . .   . .   . .   . .     . .   . .   . .   . .     . .

E|---------------------------------------------------------------|
B|---------------------------------------------------------------|
G|---------------------------------------------------------------|
D|---------------------------------------------------------------|
A|-4-----0-----2-----4-----5-4-----0-----2-----4-----5-4-----0-2-|
E|---2-4---2-4---2-4---2-4-----2-4---2-4---2-4---2-4-----2-4-----|
     . .   . .   . .   . .     . .   . .   . .   . .     . .

E|----------------------------------------------------------------------|
B|----------------------------------------------------------------------|
G|----------------------------------------------------------------------|
D|----------------------------------------------------------------------|
A|-5-4-----0-----2-----4-----5-4-----0-----2-----4-----5-4-----0-2-5-4s0|
E|-----2-4---2-4---2-4---2-4-----2-4---2-4---2-4---2-4-----2-4----------|
       . .   . .   . .   . .     . .   . .   . .   . .     . .

LEGEND

h = hammer-on
p = pull-of
s = slide
. = palm mute
Outros vídeos desta música
    7 exibições
      • ½ Tom
      • A
      • Bb
      • B
      • C
      • Db
      • D
      • Eb
      • E
      • F
      • F#
      • G
      • Ab
    • Adicionar à lista

    Afinação da cifra

    Afinador online

      0 comentários

      Ver todos os comentários

      Entre para o Cifra Club PRO

      Tenha acesso a benefícios exclusivos no App e no Site

      • Chega de anúncios

      • Badges exclusivas

      • Mais recursos no app do Afinador

      • Atendimento Prioritário

      • Aumente seu limite de lista

      • Ajude a produzir mais conteúdo

      Cifra Club Pro

      Aproveite o Cifra Club com benefícios exclusivos e sem anúncios
      Cifra Club Pro
      Aproveite o Cifra Club com benefícios exclusivos e sem anúncios
      Ops (: Contenido disponible sólo en portugués.
      OK