Cifra Club

Aprenda

One I Love

R.E.M.

Tab de baixo: Principal

Tabbed with help from Dave silverstones corrections

Tuning: Standard (E,A,D,G)

Intro:

G|--------|--------|--------|--------|
D|----57--|----54--|----57--|---7-5--|
A|7--7----|---5---7|---7---7|--------| 2x
E|-------7|--------|--------|--------|

Verse:

G|--------|--------|--------|--------|
D|--------|--------|--------|--------|
A|7-------|5-------|7-------|7-------|
E|----77--|----55--|----77--|--------|

G|--------|--------|--------|--------|
D|--------|--------|--------|--------|
A|7-------|5-------|7-------|7--7--5-|
E|---77---|----55--|----77--|--------|

G|--------|--------|--------|--------|
D|5-5-----|--------|5-5-----|-----5--|
A|----87-5|--5-57-5|--------|--57----|
E|--------|--------|---5-7-8|--------|

G|--------|--------|--------|--------|
D|--------|--------|--------|---5-4--|
A|7-------|5-------|7-------|7-----75|
E|----77--|----55--|----77--|--------|

Chorus: 

G|--------|--------|--------|--------|
D|----57--|----54--|----57--|---7-5--|
A|7--7----|---5---7|---7---7|--------| 2x
E|-------7|--------|--------|--------|

Verse:

Chorus:

G|--------|--------|--------|--------|
D|----57--|----54--|----57--|---7-5--|
A|7--7----|---5---7|---7---7|--------| 
E|-------7|--------|--------|--------|

G|--------|--------|--------|--------|
D|----57--|----54--|----57--|--------|
A|7--7----|---5---7|---7---7|---7-5--| 
E|-------7|--------|--------|--------|

Solo:

G|--------|--------|--------|--------|
D|5-5-----|--------|5-5-----|-----5--|
A|----87-5|--5-57-5|--------|-5-7----|
E|--------|--------|---5-7-8|--------|

G|--------|--------|--------|--------|
D|--------|--------|--------|--------|
A|7---76-5|------5-|7-----5-|7-------|
E|---7----|---5----|---77---|--------|

Verse:

Chorus: x2

Ending:

G|------|------|---||
D|---567|------|---||
A|7-----|5--6--|---||
E|------|------|0--||
Composição de Bill Berry / Michael Stipe / Mike Mills / Peter Buck
9.822 exibições

0 comentários

Mostrar mais comentários

Conseguiu tocar?

0 Tocaram 0 Ainda não

Grave um vídeo tocando One I Love e mande pra gente!

00:00 / 00:00
outros vídeos desta música
repetir qualidade Automático
Outros vídeos desta música
00:00 / 00:00
Automático

Cifra Club Pro

Aproveite o Cifra Club com benefícios exclusivos e sem anúncios
7 dias grátis
Cifra Club Pro
Aproveite o Cifra Club com benefícios exclusivos e sem anúncios
7 dias grátis
OK