Cifra Club

Tempo Perdido

Renato Russo

Cifra: Principal (violão e guitarra)
Selo Cifra Club: esta cifra foi revisada para atender aos critérios oficiais da nossa Equipe de Qualidade.
tom: G
[Intro] C  Am7  Bm11  Em  D
        C  Am7  Bm11  Em

         C7     Am7   Bm11      E5         D5        C              Am7
E|------------------------------------------------------------------------------|
B|-----12----8-----10-------------------------------0---0------1----------3---1-|
G|---12----9-----11-------9--9--9/7---7/5-------5---5----------0----------0---0-|
D|-10----7-----9---------9--9--9-----7--------5---------------2-----2-2/4-------|
A|---------------------7------7-----5------3--------------0---------------------|
E|------------------------------------------------------------------------------|

        Bm11               Em
E|------------------------------------2-------3-----|
B|----0-----3---1---------0-----0-------0-------0---|
G|---2--2----2---2-0----0---0-----0-------0-------0-|
D|--0----0----0---------------2---------------------|
A|-2------------------------------------------------|
E|-------------------0------------------------------|

         C                   Am7
 Todos os dias quando acordo
Bm11                Em
 Não tenho mais o tempo que passou
           C          Am7
 Mas tenho muito tempo
       Bm11              Em
 Temos todo o tempo do mundo
C              Am7
 Todos os dias antes de dormir
 Bm11                           Em
 Lembro e esqueço como foi o dia
  C                Am7
 "Sempre em frente
     Bm11               Em
 Não temos tempo a perder."
         C          Am7
 Nosso suor sagrado
            Bm11
 É bem mais belo que esse
                Em
        Sangue amargo
      C      Am7
 E tão sério
     (Bm11   Em)
 E selva...gem
Página 1 / 3
    (Bm  Em)      (Bm  Em)
 Selva...gem,  selva...gem
         Em               Em
E|----0-0-----14---------0-0-----14-14---|
B|----0-0---15--15-------0-0---15-----15-|
G|----0-0-14------14-----0-0-14----------|
D|---------------------------------------|
A|-2-----------------2-------------------|
E|-0-----------------0-------------------|

         Em             Em
E|-0-0-----14--------0-0-----14----14b-|
B|-0-0---15--15------0-0---15--15--15b-|
G|-0-0-14------14----0-0-14------------|
D|-------------------------------------|
A|----------------2--------------------|
E|----------------0--------------------|

 C                    Am7          Bm
 Veja o sol dessa manhã tão cinza
          Em                  C
  A tempestade que chega é da cor
                       Am7
        Dos teus olhos
           Bm     Em
        Casta.....nhos
            C         Am7
 Então me abraça forte    e me
        Bm11
        Diz mais uma vez
          Em       C        Am7
 Que já estamos distantes de tudo
 Bm11                  Em
 Temos nosso próprio tempo
 Bm11                  Em
 Temos nosso próprio tempo
 Bm11                  Em
 Temos nosso próprio tempo
     C         Am7
 Não tenho medo do escuro
 Bm11         Em        C    Am7
   Mas deixe as luzes acesas
         Bm11     Em
        Ago.....ra
       C                 Am7
 O que foi escondido é o que se escondeu
         Bm11
 E o que foi  prometido
            Em       D
        Ninguém prometeu
Página 2 / 3
         C             Am7
 Nem foi tempo perdido
           Bm11     Em
 Somos tão jo.....vens
     Bm11      Em
 Tão jo.....vens
      Bm11    Em
 Tão jo.....vens

[Solo Final]
E|---0-0-----14----------14b--14------------------14----------------|
B|---0-0---15--15---------------15b----15b----15----15--------------|
G|---0-0-14------14-4x-14------------14-----14----------14---14-----|
D|--------------------------------------------------------------14b-|
A|-2----------------------------------------------------------------|
E|-0----------------------------------------------------------------|


(Pode fazer o "solo final" e o do "meio" também com harmônicos)
     Harm      harm          harm
E|---12---------------------5--------------------------|
B|---12---------7-----------5--------------------------|
G|---12-------7--7--4x------5--------------------------|
D|----------7-----7------------------------------------|
Outros vídeos desta música
    277.697 exibições
      • ½ Tom
      • A
      • Bb
      • B
      • C
      • Db
      • D
      • Eb
      • E
      • F
      • F#
      • G
      • Ab
    • Adicionar à lista

    Afinação da cifra

    Afinador online

      0 comentários

      Ver todos os comentários

      Entre para o Cifra Club PRO

      Tenha acesso a benefícios exclusivos no App e no Site

      • Chega de anúncios

      • Badges exclusivas

      • Mais recursos no app do Afinador

      • Atendimento Prioritário

      • Aumente seu limite de lista

      • Ajude a produzir mais conteúdo

      Cifra Club Pro

      Aproveite o Cifra Club com benefícios exclusivos e sem anúncios
      Cifra Club Pro
      Aproveite o Cifra Club com benefícios exclusivos e sem anúncios
      OK