Cifra Club

Aprenda

Tempo Perdido

Renato Russo

Cifra: Principal (violão e guitarra)
Tom: G
(intro)  C  Am7  Bm11  Em  D  C  Am7  Bm11 Em

         C7     Am7   Bm11      E5         D5        C              Am7
E|------------------------------------------------------------------------------
B|-----12----8-----10-------------------------------0---0------1----------3---1-
G|---12----9-----11-------9--9--9/7---7/5-------5---5----------0----------0---0-
D|-10----7-----9---------9--9--9-----7--------5---------------2------2/4------
A|---------------------7------7-----5------3--------------0---------------------
E|------------------------------------------------------------------------------

   (4x) (4x) (4x)
        Bm11               Em
------------------------------------2-------3-----|
----0-----3---1---------0-----0-------0-------0---|
---2--2----2---2-0----0---0-----0-------0-------0-|
--0----0----0---------------2---------------------|
-2------------------------------------------------|
-------------------0------------------------------|


         C                   Am7
 Todos os dias quando acordo,
Bm11                Em
 Não tenho mais o tempo que passou
           C          Am7
 Mas tenho muito tempo
       Bm11              Em
 Temos todo o tempo do mundo.
C              Am7
 Todos os dias antes de dormir,
 Bm11                           Em
 Lembro e esqueço como foi o dia:
  C                Am7
 "Sempre em frente,
     Bm11               Em
 Não temos tempo a perder."
         C          Am7
 Nosso suor sagrado
            Bm11
 É bem mais belo que esse
                Em
        sangue amargo
      C      Am7
 E tão sério
     (Bm11   Em)
 E selva...gem.
Página 1 / 3
    (Bm  Em)      (Bm  Em)
 Selva...gem,  selva...gem.
         Em               Em
E|----0-0-----14---------0-0-----14-14---|
B|----0-0---15--15-------0-0---15-----15-|
G|----0-0-14------14-----0-0-14----------|
D|---------------------------------------|
A|-2-----------------2-------------------|
E|-0-----------------0-------------------|

         Em             Em
E|-0-0-----14--------0-0-----14----14b-|
B|-0-0---15--15------0-0---15--15--15b-|
G|-0-0-14------14----0-0-14------------|
D|-------------------------------------|
A|----------------2--------------------|
E|----------------0--------------------|

 C                    Am7          Bm
 Veja o sol dessa manhã tão cinza
          Em                  C
  A tempestade que chega é da cor
                       Am7
        dos teus olhos
           Bm     Em
        casta.....nhos.
            C         Am7
 Então me abraça forte    e me
        Bm11
        diz mais uma vez
          Em       C        Am7
 Que já estamos distantes de tudo
 Bm11                  Em
 Temos nosso próprio tempo.
 Bm11                  Em
 Temos nosso próprio tempo.
 Bm11                  Em
 Temos nosso próprio tempo.
     C         Am7
 Não tenho medo do escuro,
 Bm11         Em        C    Am7
   mas deixe as luzes acesas
         Bm11     Em
        ago.....ra.
       C                 Am7
 O que foi escondido é o que se escondeu
         Bm11
 E o que foi  prometido,
            Em       D
        ninguém prometeu.
Página 2 / 3
         C             Am7
 Nem foi tempo perdido.
           Bm11     Em
 Somos tão jo.....vens.
     Bm11      Em
 tão jo.....vens.
      Bm11    Em
 tão jo.....vens.

(solo final)
E|---0-0-----14----|---|---14b--14------------------14----------------|
B|---0-0---15--15--|---|----------15b----15b----15----15--------------|
G|---0-0-14------14|-4x|-14------------14-----14----------14---14-----|
D|-----------------|---|------------------------------------------14b-|
A|-2---------------|---|----------------------------------------------|
E|-0---------------|---|----------------------------------------------|


(pode fazer o "solo final" e o do "meio" também com harmônicos)
     harm      harm          harm
E|---12------------|---|------5--------------------------|
B|---12---------7--|---|------5--------------------------|
G|---12-------7--7-|-4x|------5--------------------------|
D|----------7-----7|---|---------------------------------|
Composição de Renato Russo
Colaboração e revisão:
  • Mário Júnior
  • Leve Impacto
128.469 exibições
    • ½ Tom
    • A
    • Bb
    • B
    • C
    • Db
    • D
    • Eb
    • E
    • F
    • F#
    • G
    • Ab
  • Adicionar à lista

    0 comentários

    Mostrar mais comentários

    Conseguiu tocar?

    10 Tocaram 4 Ainda não

    Grave um vídeo tocando Tempo Perdido e mande pra gente!

    00:00 / 00:00
    outros vídeos desta música
    repetir qualidade Automático
    Outros vídeos desta música
    00:00 / 00:00
    Automático

    Cifra Club Pro

    Aproveite o Cifra Club com benefícios exclusivos e sem anúncios
    Cifra Club Pro
    Aproveite o Cifra Club com benefícios exclusivos e sem anúncios
    OK