Cifra Club

Anabela

Os Replicantes

Cifra: Principal (violão e guitarra)
tom: G
Intro Baixo
g|--------------------------|
d|-----0-2-0-2-----0-2-0-2--|
a|--------------------------|
E|-2------------2-----------|

Riff 1
e|------------------------------------------------|
b|------------------------------------------------|
g|------------------------------------------------|
d|--11-11-11-11...--77-9--77-9---11-11-11-11...---|
a|---9--9--9--9...--55-7--55-7----9--9--9--9...---|
E|------------------------------------------------|

Riff 2
e|---------------------------|
b|---------------------------|
g|---------------------------|
d|--------66------66---------|
a|---7777-44-7777-44-7777...-|
e|---5555----5555----5555...-|

Riff 3
e|---------------------------|
b|---------------------------|
g|-77777-7---77777-7---------|
d|-77777-7-7-77777-7-7-------|
a|-55555-5-7-55555-5-7-...---|
E|---------5---------5-....--|


Riff 1
O que um dizia o outro negava
O que um sentia o outro ignorava
Eram dois irmãos mas eram bem rivais
Mesmo tendo os signos e os sinais

Riff 1
O que um fazia o outro gozava
O que um ouvia o outro deletava
Eram como irmãos mas eram bem rivais
Mesmo sendo filhos dos mesmos pais


Riff 2
Até que pintou Anabela e nada mais foi como era
Anabela não dava nada
O que queria ela conquistava
Anabela era uma flor
Mas também era os espinhos
Acabou com o pouco amor
Que restava entre os meninos

Riff 1
O que um dizia o outro negava
O que um sentia o outro ignorava
Eram dois irmãos mas eram bem rivais
Mesmo tendo os signos e os sinais

Riff 2
Até que pintou Anabela e nada mais foi como era
Anabela não dava nada
O que queria ela conquistava

Riff 3
Começaram a brigar e depois a não se aturar
Num belo dia Anabela sumiu
Com outra dupla ela se divertiu

Riff 2
Anabela era uma flor
Mas também era os espinhos
Acabou com o pouco amor
Que restava entre os meninos

Riff 3
E agora eles que viviam
Como dois galos de rinha
Se deram conta que um era
A melhor coisa que o outro tinha
Se deram conta que um era
A melhor coisa que o outro tinha

Riff 2
Anabela não dava nada
O que queria ela conquistava
Anabela era uma flor
Mas também era os espinhos

Riff 2
Anabela 4x
Composição de Wander Wildner, H. Heinz
Colaboração e revisão:
  • leonardo bythors
1.697 exibições
    • ½ Tom
    • A
    • Bb
    • B
    • C
    • Db
    • D
    • Eb
    • E
    • F
    • F#
    • G
    • Ab
  • Adicionar à lista

    0 comentários

    Ver todos os comentários

    Conseguiu tocar?

    0 Tocaram 0 Ainda não

    Grave um vídeo tocando Anabela e nos envie!

    00:00 / 00:00
    Outros vídeos desta música
    Repetir Qualidade Automático
    Outros vídeos desta música
    00:00 / 00:00
    Automático

    Cifra Club Pro

    Aproveite o Cifra Club com benefícios exclusivos e sem anúncios
    Cifra Club Pro
    Aproveite o Cifra Club com benefícios exclusivos e sem anúncios
    OK