Cifra Club

O Futuro É Vórtex

Os Replicantes

Cifra: Principal (violão e guitarra)
Tom: D
Intro


e|---------2----------2--...------------|
b|-333333--3--333333--3--...------------|
g|---------2----------2--...------------|
d|---------0----------0-----------------|
a|--------------------------------------|
E|--------------------------------------|


Baixo do começo

g|--------------------------
d|--------------------------
a|--5-----5-----------------
E|----7-5---7-5-...---------

Riff 1                Riff 2
     
e|-------------------|------------------|
b|-------88----------|------------------|
g|-------77--7-7-----|------9--77-------|
d|-10-10-55--7-7-----|-10---9--77-------|
a|--8--8-----5-5-(2x)|--8---7--55-------|
E|-------------------|------------------|


Riff 1
Caiu pra bandas do amanhã
Ele partiu pra não voltar
Ele levou seu talismã

Riff 2
Foi para Vórtex
Aonde o sol já virou lua

Intro

Riff 1
Ele precisa aprender a morrer
Mandando chumbo até o cano derreter
Ele não gosta do lugar

Riff 2
Esta em Vórtex
Aonde o sol já virou lua

Riff 1
A barra é braba no futuro
Tá tudo no mesmo lugar
Lá também se nasce duro
Pra comer tem que matar

Riff 1
Ele precisa aprender a morrer
Mandando chumbo até o cano derreter
Te mantém ai na tua

Riff2 
Porque em Vórtex
O nosso amigo sol há muito virou lua

Riff 1
Riff 2

Riff 1
A barra é braba no futuro
Tá tudo no mesmo lugar
Lá também se nasce duro
Pra comer tem que matar

Riff 1
Ele precisa aprender a morrer
Mandando chumbo até o cano derreter
Te mantém ai na tua

Riff2 
Porque em Vórtex
O nosso amigo sol há muito virou lua
exibições 5.297
Acordes para:
    Colaboração e revisão:
    • leonardo bythors

    0 comentários

    mostrar mais comentários

    Conseguiu tocar?

    2 tocaram 0 ainda não

    Grave um vídeo tocando O Futuro É Vórtex e mande pra gente!

    00:00 / 00:00
    outros vídeos desta música
    repetir qualidade Automático
    Outros vídeos desta música
    00:00 / 00:00
    Automático
    OK