Cifra Club

Aprenda

O Nome da Paz

Resgate

Cifra: Principal (violão e guitarra)
Tom: C
 Intro 4x: C  G  Am  G
E|-------------------------------------8-5-3-0-3-----
B|-------------------------------------8-5-3-5-3-----
G|--------------------------5-7b-5-5------------------
D|5h7-5-----------------5-7--------------------------
A|-------7-5-3---3-5/7-------------------------------
E|-------------5-------------------------------------

E|-------------------8--------------------------------
B|---------------7/9--9-------------------------------
G|----------5-5----------------5-5-------------------- (2x)
D|----5-5h7--------------5-5h7------7-7---------------
A|----------------------------------------------------
E|----------------------------------------------------

Obs: Encerra o solo com G - Am ( toca uma vez cada um no ritmo da música )


Am           F              C        G    Am
   de que adianta estar vestido de branco
          F           C       G
e ter no rosto um sorriso amarelo
Am              F       C         G
   se a paz não é um estado de espírito
 F
se por dentro há uma grande e interminável guerra

Interlúdio: C  G  Am  G  C  G  Am  G

Am         F             C         G
   paz não é o que se encontra no mundo
Am           F           C          G
   que paz é essa que se arma pra guerra?
Am          F           C      G
   aonde está o fim da destruição?

      F
ansiedade quer vencer o desespero do coração

Interlúdio: C  G  Am  G  C  G  Am  G

C        G  Am  F C          G    Am  F
 o nome da paz,    foi declarado na cruz
C         G  Am    F
  o nome da paz é Jesus

Interlúdio: C  G  Am  G  C  G  Am  G

         C                   Am
 ouço a voz que diz: minha paz vos dou
           Em    F   G  C  G
agora tudo vai mudar
Composição de Estevam Hernandes / Hamilton Gomes / Jorge Bruno / Marcelo Bassa / Zé Bruno
Colaboração e revisão:
  • Katiely Souza
  • Eduardo Figueiredo
67.114 exibições
    • ½ Tom
    • A
    • Bb
    • B
    • C
    • Db
    • D
    • Eb
    • E
    • F
    • F#
    • G
    • Ab
  • Adicionar à lista

    0 comentários

    Mostrar mais comentários

    Conseguiu tocar?

    5 Tocaram 0 Ainda não

    Grave um vídeo tocando O Nome da Paz e mande pra gente!

    00:00 / 00:00
    outros vídeos desta música
    repetir qualidade Automático
    Outros vídeos desta música
    00:00 / 00:00
    Automático

    Cifra Club Pro

    Aproveite o Cifra Club com benefícios exclusivos e sem anúncios
    7 dias grátis
    Cifra Club Pro
    Aproveite o Cifra Club com benefícios exclusivos e sem anúncios
    7 dias grátis
    OK