Cifra Club

Aprenda

Eu Pedi Você

Restart

Cifra: Principal (violão e guitarra)
tom: B
(intro 4x) B5 F#5 E F#5

E|---------------------------------|
B|---------------------------------|
G|-----4-6-4--------4-6-6/8-6h4-6--| 
D|-4h6-------6-4h6-----------------|
A|---------------------------------|
E|---------------------------------|

B5       F#5
Mais um ano vem
E           F#5       B5       F#5
E se eu pudesse pedir, eu diria assim:
E           F#5       B5       F#5
Pra manter o teu sorriso e o teu olhar
E           F#5       B5       F#5    E
Em qualquer lugar que eu possa enxergar
B5       F#5
Aonde eu for

(solo 2x) B5 F#5 E F#5

E|---------------------------------------------------------------------|
B|---------------------------------------------------------------------|
G|------4-6-6/8-6h4-6-4----4-6/8-6h4------4-6-6/8-6h4-6-4-6/8-8h10-8/6-|
D|-4h6-----------------4h6------------4h6------------------------------|
A|---------------------------------------------------------------------|
E|---------------------------------------------------------------------|

B5       F#5
É que ouvi dizer
E           F#5
Que em noites assim
B5     F#5  E  F#5
Tudo pode acontecer
B5       F#5     E           F#5
Um momento bom, o teu cheiro em mim
B5    F#5     E           F#5           E (dedilhado depois solo)
faz lembrar de tudo o que eu quero fazer...
G#5            E5                B5           F#5
e eu não vou dizer que tudo foi em vão    ãão.....
     G#5                E5
Pois de todas as coisas que eu pedi no Natal
        B5                   C5
Você é aquela que eu mais quero ter em minhas mãos

(solo 2x) B5 F#5 E F#5

E|---------------------------------|
B|---------------------------------|
G|-----4-6-4--------4-6-6/8-6h4-6--|  
D|-4h6-------6-4h6-----------------|
A|---------------------------------|
E|---------------------------------|

B5       F#5
Mais um ano vem
E           F#5       B5       F#5
E se eu pudesse pedir, eu diria assim:
E           F#5       B5       F#5
Pra manter o teu sorriso e o teu olhar
E           F#5       B5       F#5    E
Em qualquer lugar que eu possa enxergar
B5       F#5
Aonde eu for

(solo 2x) B5 F#5 E F#5

E|---------------------------------------------------------------------|
B|---------------------------------------------------------------------|
G|------4-6-6/8-6h4-6-4----4-6/8-6h4------4-6-6/8-6h4-6-4-6/8-8h10-8/6-|
D|-4h6-----------------4h6------------4h6------------------------------|
A|---------------------------------------------------------------------|
E|---------------------------------------------------------------------|

B5       F#5
É que ouvi dizer
E           F#5
Que em noites assim
B5     F#5  E  F#5
Tudo pode acontecer
B5       F#5     E           F#5
Um momento bom, o teu cheiro em mim
B5    F#5     E           F#5           E (dedilhado depois solo)
faz lembrar de tudo o que eu quero fazer...
G#5            E5                B5           F#5
e eu não vou dizer que tudo foi em vão    ãão.....
     G#5                E5
Pois de todas as coisas que eu pedi no Natal
        B5                   C5
Você é aquela que eu mais quero ter em minhas mãos

(vocalização 4x) B5 F#5 E F#5

G#5            E5                B5           F#5
e eu não vou dizer que tudo foi em vão    ãão.....
     G#5                E5
Pois de todas as coisas que eu pedi no Natal
        B5                   C5
Você é aquela que eu mais quero ter em minhas mãos

G#5            E5                B5           F#5
e eu não vou dizer que tudo foi em vão    ãão.....
     G#5                E5
Pois de todas as coisas que eu pedi no Natal
        B5                   C5
Você é aquela que eu mais quero ter em minhas mãos
G#5            E5                B5           F#5
e eu não vou dizer que tudo foi em vão    ãão.....
     G#5                E5
Pois de todas as coisas que eu pedi no Natal
        B5                   C5
Você é aquela que eu mais quero ter em minhas mãos

(vocalização e solo)  B5 F#5 E F#5 

E|---------------------------------------------------------------------|
B|---------------------------------------------------------------------|
G|------4-6-6/8-6h4-6-4----4-6/8-6h4------4-6-6/8-6h4-6-4-6/8-8h10-8/6-|
D|-4h6-----------------4h6------------4h6------------------------------|
A|---------------------------------------------------------------------|
E|---------------------------------------------------------------------|
Colaboração e revisão:
89.177 exibições
    • ½ Tom
    • A
    • Bb
    • B
    • C
    • Db
    • D
    • Eb
    • E
    • F
    • F#
    • G
    • Ab
  • Adicionar à lista

    0 comentários

    Ver todos os comentários

    Conseguiu tocar?

    6 Tocaram 0 Ainda não

    Grave um vídeo tocando Eu Pedi Você e nos envie!

    00:00 / 00:00
    outros vídeos desta música
    repetir qualidade Automático
    Outros vídeos desta música
    00:00 / 00:00
    Automático

    Cifra Club Pro

    Aproveite o Cifra Club com benefícios exclusivos e sem anúncios
    Cifra Club Pro
    Aproveite o Cifra Club com benefícios exclusivos e sem anúncios
    OK