Cifra Club

Aprenda

Recomeçar

Restart

Cifra: Principal (violão e guitarra)
tom: A
[Intro] D9  A9  E  F#m7/11  E

E|--------------------------------------------------|
B|-8--------------8----------------8--------6-5-----|
G|----5---7-9-7--5----5---7-9-7---5--7-9-7------7-5-|
D|--------------------------------------------------|
A|--------------------------------------------------|
E|--------------------------------------------------|

D9         A9
Eu sei que assim talvez seja melhor
E          F#m7     E
Mas não espero ver você voltar
D9        A9               E
E dizer que podemos recomeçar

D9         A9
E as noites que em claro eu passei
E          F#m7/11     E
Só pra entender, ou enxergar onde eu errei
D9         A9              E  F#m7/11  E
De nada valerão depois do fim

D9
E hoje sei

F#m7/11
E hoje sei, sei, sei
D9
Não importa mais
A9
Porque não vai, vai, vai
E
Voltar atrás
F#m7/11  D9     A9   E
O que restou em mim

D9               A9
E não vou mudar, nem tentar entender
E               F#m7/11              E
O que aconteceu, ou vai acontecer
D9                A9      E
Nossa história teve um fim.

(intro 2x)

D9         A9
Eu sei que assim talvez seja melhor
E          F#m7/11     E
Mas não espero ver você voltar
D9        A9               E
E dizer que podemos recomeçar

D9         A9
E hoje estava pensando em você
E          F#m7/11     E
Em tudo o que eu queria te dizer
D9        A9               E  F#m7/11  E
Mas não tive coragem de falar

D9
E hoje sei

( D9  E  F#m7/11  A9  D9  E  A9 )
( D9  E  F#m7/11  A9  D9  E  A9 )

Nossa História Teve um fim...
E|----------------------------------------------|
B|------1---------------------------------------|
G|---0---------------5----5---------------------|
D|----------------5-------5---------------------|
A|-3----------4-----------0---------------------|
E|----------------------------------------------|
Composição de Koba
759.129 exibições
  • Simplificar cifra
    • ½ Tom
    • A
    • Bb
    • B
    • C
    • Db
    • D
    • Eb
    • E
    • F
    • F#
    • G
    • Ab
  • Adicionar à lista

    0 comentários

    Ver todos os comentários

    Conseguiu tocar?

    53 Tocaram 2 Ainda não

    Grave um vídeo tocando Recomeçar e nos envie!

    00:00 / 00:00
    Outros vídeos desta música
    Repetir Qualidade Automático
    Outros vídeos desta música
    00:00 / 00:00
    Automático
    Capítulos
    • Início
    • Acordes da introdução e da primeira parte
    • Tocando a introdução e a primeira parte
    • Ensinando o ritmo da música
    • Acordes do refrão
    • Tocando o refrão
    • Encerramento

    Cifra Club Pro

    Aproveite o Cifra Club com benefícios exclusivos e sem anúncios
    Cifra Club Pro
    Aproveite o Cifra Club com benefícios exclusivos e sem anúncios
    OK