Catarax

Reveille

Composição de: Reveille
tom: Eb (forma dos acordes no tom de F ) Afinação: D G C F A D
Afinação: Drop C#

[Intro]

(Greg)

D#|---------------------------------------------|
A#|---------------------------------------------|
F#|---------------------------------------------|
C#|--6-0-3-0-2p0-0--0-2-0-6-0-3-0---------------|
G#|--6-0-3-0-2p0-0--0-2-0-6-0-3-0---------------|
C#|--6-0-3-0-2p0-0--0-2-0-6-0-3-0-1-3-1-0-1-3-1-|

(Steve)

D#|--------------------------------------------|
A#|--------------------------------------------|
F#|--------------------------------------------|
C#|--------0-----0-----------------------------| 
G#|--------0-----0-----------------------------|
C#|--------0-----0-----------------------------|
          

[Verse]

(Greg)

D#|---------------------------------------------|
A#|---------------------------------------------|
F#|---------------------------------------------|
C#|--6-0-3-0-2p0-0--0-2-0-6-0-3-0---------------|
G#|--6-0-3-0-2p0-0--0-2-0-6-0-3-0---------------|
C#|--6-0-3-0-2p0-0--0-2-0-6-0-3-0-1-3-1-0-1-3-1-|

(Steve)

D#|--10-12-13-12-----|--10-12-13-12-9--|--10-12-13-12----|-10-12-13-12-|
A#|---------------10-|-----------------|--------------10-|-------------|
F#|------------------|-----------------|-----------------|-------------|
C#|------------------|-----------------|-----------------|-------------| 
G#|------------------|-----------------|-----------------|-------------|
C#|------------------|-----------------|-----------------|-------------|


[PreChorus 1]

D#|-----------------------------------|
A#|-----------------------------------|
F#|-----------------------------------|
C#|-----------------------------------|
G#|-----------------------------------|
C#|--1-3-1-0-1-3-1-0-1-3-1-0-1-3-1----|


[PreChorus 2]

D#|-----------------------------------|
A#|-----------------------------------|
F#|-----------------------------------|
C#|--1-3-1-0-1-3-1-0-1-3-1-0-1-3-1----|
G#|--1-3-1-0-1-3-1-0-1-3-1-0-1-3-1----|
C#|--1-3-1-0-1-3-1-0-1-3-1-0-1-3-1----|


[Chorus]

D#|-------------------------------------|
A#|-------------------------------------|
F#|-------------------------------------|
C#|--0-2-0-3-0-2/6-6----0-2-0-3-0-1-3-1-|
G#|--0-2-0-3-0-2/6-6----0-2-0-3-0-1-3-1-|
C#|--0-2-0-3-0-2/6-6----0-2-0-3-0-1-3-1-|


[Interlude]

(Part 1 - Greg)

D#|---------------------7-|
A#|------0-----0--------0-|
F#|----4-----4---4----4-4-| 
C#|--0--------------0-----|
G#|-----------------------|
C#|-----------------------|

(Part 1 - Steve)

D#|-----------------------|
A#|-------12-----------11-|
F#|-------11-----------11-|
C#|-----------------------| 
G#|-----------------------|
C#|-----------------------|

(Part 2)

D#|--14-15-14-12---------------------------|
A#|--------------15---14---15--14-15-14-12-|
F#|----------------------------------------|
C#|----------------------------------------|
G#|----------------------------------------|
C#|----------------------------------------|

(Part 3 - Greg)

D#|--14----15--14---------------14-15-14---15--14-----------|
A#|------------------15-----14----------------------15---14-|
F#|---------------------------------------------------------|
C#|---------------------------------------------------------|
G#|---------------------------------------------------------|
C#|---------------------------------------------------------|

(Part 3 - Steve)
(sounds like a tremlo effect)

D#|-----------------------|
A#|-------12-----------11-|
F#|-------11-----------11-|
C#|-----------------------| 
G#|-----------------------|
C#|-----------------------|

(Part 4)

D#|----------------------------------------|
A#|----------------------------------------|
F#|----------------------------------------|
C#|--1-3-1-0--0-1-0-1-0-1-3-1--------------|
G#|--1-3-1-0--0-1-0-1-0-1-3-1--------------|
C#|--1-3-1-0--0-1-0-1-0-1-3-1--------------|
Página 1 / 1

Letras e título
Acordes e artista

resetar configurações
OK