Cifra Club

Deixa Acontecer

Grupo Revelação

Cifra: Principal (violão e guitarra)
tom: Bm
[Intro] G7M  F#7  Bm7  D7(13)
        G7M  F#7  Bm7  D7(4/9)

[Tab - Intro]

Parte 1 de 2
   G7M    F#7            Bm7    D7(13)
E|-2------3-5-3-2--------2----------7-------|
B|-3-3----2-----------0--3-3----7-7---7-----|
G|-4---4--3---------2----2-2-4--5-5-------0-|
D|----------------4-------------------------|
A|-----------------------2-2----5-------5---|
E|-3-3----2---------------------------------|

Parte 2 de 2
   G7M      F#7            Bm7    D7(4/9)
E|---2------3-5-3-2--------2----------------|
B|---3-3----2-----------0--3-3-3--5---------|
G|---4---4--3---------2----2-2-2--5---------|
D|------------------4--------4-4--5---------|
A|-------------------------2------5---------|
E|-3---2----2-------------------------------|

[Refrão] 

[Tab - Refrão]

Parte 1 de 4
   G7M      F#7      Bm7        D7(9)
E|------------------------------------------|
B|-3-3-3-3--2-2---2--3---3-3-3--5-5-----5---|
G|-4-4-4-4--3-3---3--2---2-2-2--5-5-----5---|
D|-4-4-4-4--2-2---2--4---4-4-4--4---4-------|
A|---------------------2---2----5-----5-----|
E|-3---3----2---2---------------------------|

Parte 2 de 4 
   G7M        F#7        Bm7  Bbm7 Am7  D7(9)
E|-------------------------7----6----5------|
B|-3---3-3-3--2-2-----2--7-7--6-6--5-5--5-5-|
G|-4---4-4-4--3-3-----3--7-7--6-6--5-5--5-5-|
D|-4---4-4-4--2---2------7----6----5----4-4-|
A|--------------------------------------5---|
E|---3---3----2-----2----7----6----5--------|
 
Parte 3 de 4
   C#m7(5-)   F#7(13-)   Bm7        D7(4/9)
E|------------------------------------------|
B|-5---5-5-5--3-3-----3--3---3-3-3--5-5-5-5-|
G|-4---4-4-4--3-3-----3--2---2-2-2--5-5-5-5-|
D|-5---5-5-5--2---2------4---4-4-4--5-5-5-5-|
A|---4---4-----------------2---2----5---5---|
E|------------2-----2-----------------------|
 
Parte 4 de 4
   C#m7(5-)   F#7(13-) Bm7     A7(4/9)
E|------------------------2------0-2-0-2-0-2|
B|-5---5-5-5--3-3----3-3--3-3--3------------|
G|-4---4-4-4--3-3----3-2--2-2--4------------|
D|-5---5-5-5--2---2----4----4--5------------|
A|---4---4---------------2--2--0------------|
E|------------2----2------------------------|

             G7M   F#7  Bm7
Deixa acontecer naturalmente
D7(9)         G7M   F#7   Bm7  Bbm7
Eu não quero ver você chorar
 Am7    D7(9)  G7M   F#7      Bm7
Deixa que  o amor encontre a gente
 D7(9)      C#m7(5-)  F#7(13-)  Bm7  
Nosso caso vai      etern_____izar

 D7(4/9)     G7M   F#7  Bm7
Deixa acontecer naturalmente
D7(9)         G7M   F#7   Bm7  Bbm7
Eu não quero ver você chorar
 Am7    D7(9)  G7M   F#7      Bm7
Deixa que  o amor encontre a gente
 D7(9)      C#m7(5-)  F#7(13-)  Bm7  A7(4/9)
Nosso caso vai      etern_____izar 

[Primeira Parte] 

[Tab - Primeira Parte]

Parte 1 de 4
   D7M              F#m7
E|-2-2-2-2-2-2---2--------------------------|
B|-2-2-2-2-2-2---2--2---2-2-2-2-2-----2-----|
G|-2-2-2-2-2-2---2--2---2-2-2-2-2-----2-----|
D|-0---0---0---0----2---2-2-2-2---2---------|
A|------------------------------------------|
E|--------------------2---2---2-----2-------|
 
Parte 2 de 4
   Em7        A7        Em7  F#m7 G7M  A7(4/9)
E|-----0------------------------------------|
B|-3---3-3-3--2-2----2--3-3--2-2--3-3--3-3--|
G|-0---0-0-0--0-0----0--0-0--2-2--4-4--4-4--|
D|-2-----2-2--2---2-----2-2--2-2--4-4--5-5--|
A|------------0------------------------0----|
E|---0---0----------0---0----2----3---------|
 
Parte 3 de 4
   D6               F#m7
E|-2-2-2-2-2-2---2--------------------------|
B|-0-0-0-0-0-0---0--2---2-2-2-2-2-----2-----|
G|-2-2-2-2-2-2---2--2---2-2-2-2-2-----2-----|
D|-0---0---0---0----2---2-2-2-2---2---------|
A|------------------------------------------|
E|--------------------2---2---2-----2-------|
 
Parte 4 de 4
   Em7       Em7/D     C#m7(5-)  F#7
E|-----0-----0-0----0------------2-3-2-3-2-3|
B|-3---3-3-3-3-3----3--5---5-5-5-2----------|
G|-0---0-0-0-0---0-----4---4-4-4-3----------|
D|-2-----2-2-0-----0---5---5-5-5------------|
A|-----------------------4---4--------------|
E|---0---0-----------------------2----------|

D7M
    Você já disse que me quer
F#m7
     Pra toda a vida, eternidade
                Em7      A7
Quando está distante de mim
            Em7  F#m7  G7M  A7(4/9)
Fica louca de   sau___da___de
D6                             F#m7
   Que é a razão do seu viver sou eu
                  Em7      Em7/D
Está tudo bem, eu acredito
               C#m7(5-)   F#7
Eu não tô duvidando disso

[Segunda Parte] 

[Tab - Segunda Parte]

Parte 1 de 4
   Bm7                  F#m7
E|-2----------------------------------------|
B|-3-3-3-3-3-3---3---3--2---2-2-2-2-2-2---2-|
G|-2-2-2-2-2-2---2---2--2---2-2-2-2-2-2---2-|
D|---4-4-4-4---4--------2---2-2-2-2-2-2---2-|
A|-2---2---2-------2------------------------|
E|------------------------2---2---2-----2---|
 
Parte 2 de 4
   G7M       F#7         Bm7
E|---------------------------2--------------|
B|-3---3-3-3--2-2-----2--3---3-3-3-3-3-3---3|
G|-4---4-4-4--3-3-----3--2---2-2-2-2-2-2---2|
D|-4---4-4-4--2---2------4-----4-4-4-4-4---4|
A|-------------------------2---2---2-----2--|
E|---3---3----2-----2-----------------------|
 
Parte 3 de 4
   A7(4)      A7         D7M
E|-----0-----------------2---2-2-2-2-2-2---2-|
B|-3---3-3-3--2-2----2---2---2-2-2-2-2-2---2-|
G|-0---0-0-0--0-0----0---2---2-2-2-2-2-2---2-|
D|-2-----2-2--2---2--------0---0---0-----0---|
A|---0---0----0-----0------------------------|
E|-------------------------------------------|

Parte 4 de 4
   C#m7(5-)   F#7(13-)   Bm7        D7(4/9)
E|------------------------------------------|
B|-5---5-5-5--3-3-----3--3---3-3-3--5-5-5-5-|
G|-4---4-4-4--3-3-----3--2---2-2-2--5-5-5-5-|
D|-5---5-5-5--2---2------4---4-4-4--5-5-5-5-|
A|---4---4-----------------2---2----5---5---|
E|------------2-----2-----------------------|

Bm7
    Só que eu tenho muito medo
           F#m7
De me apaixonar
G7M                   F#7          Bm7
    Esse filme já passou na minha vida
A7(4)            A7      D7M
E você tá me ajudando a superar
C#m7(5-)                      F#7  
         Eu não quero ser um mal 
        Bm7  
Na sua vida

[Refrão] 

[Tab - Refrão]

Parte 1 de 4
   G7M      F#7      Bm7        D7(9)
E|------------------------------------------|
B|-3-3-3-3--2-2---2--3---3-3-3--5-5-----5---|
G|-4-4-4-4--3-3---3--2---2-2-2--5-5-----5---|
D|-4-4-4-4--2-2---2--4---4-4-4--4---4-------|
A|---------------------2---2----5-----5-----|
E|-3---3----2---2---------------------------|

Parte 2 de 4 
   G7M        F#7        Bm7  Bbm7 Am7  D7(9)
E|-------------------------7----6----5------|
B|-3---3-3-3--2-2-----2--7-7--6-6--5-5--5-5-|
G|-4---4-4-4--3-3-----3--7-7--6-6--5-5--5-5-|
D|-4---4-4-4--2---2------7----6----5----4-4-|
A|--------------------------------------5---|
E|---3---3----2-----2----7----6----5--------|
 
Parte 3 de 4
   C#m7(5-)   F#7(13-)   Bm7        D7(4/9)
E|------------------------------------------|
B|-5---5-5-5--3-3-----3--3---3-3-3--5-5-5-5-|
G|-4---4-4-4--3-3-----3--2---2-2-2--5-5-5-5-|
D|-5---5-5-5--2---2------4---4-4-4--5-5-5-5-|
A|---4---4-----------------2---2----5---5---|
E|------------2-----2-----------------------|
 
Parte 4 de 4
   C#m7(5-)   F#7(13-) Bm7     A7(4/9)
E|------------------------2------0-2-0-2-0-2|
B|-5---5-5-5--3-3----3-3--3-3--3------------|
G|-4---4-4-4--3-3----3-2--2-2--4------------|
D|-5---5-5-5--2---2----4----4--5------------|
A|---4---4---------------2--2--0------------|
E|------------2----2------------------------|

 D7(4/9)     G7M   F#7  Bm7
Deixa acontecer naturalmente
D7(9)         G7M   F#7   Bm7  Bbm7
Eu não quero ver você chorar
 Am7    D7(9)  G7M   F#7      Bm7
Deixa que  o amor encontre a gente
 D7(9)      C#m7(5-)  F#7(13-)  Bm7  
Nosso caso vai      etern_____izar

 D7(4/9)     G7M   F#7  Bm7
Deixa acontecer naturalmente
D7(9)         G7M   F#7   Bm7  Bbm7
Eu não quero ver você chorar
 Am7    D7(9)  G7M   F#7      Bm7
Deixa que  o amor encontre a gente
 D7(9)      C#m7(5-)  F#7(13-)  Bm7  A7(4/9)
Nosso caso vai      etern_____izar

[Primeira Parte] 

[Tab - Primeira Parte]

Parte 1 de 4
   D7M              F#m7
E|-2-2-2-2-2-2---2--------------------------|
B|-2-2-2-2-2-2---2--2---2-2-2-2-2-----2-----|
G|-2-2-2-2-2-2---2--2---2-2-2-2-2-----2-----|
D|-0---0---0---0----2---2-2-2-2---2---------|
A|------------------------------------------|
E|--------------------2---2---2-----2-------|
 
Parte 2 de 4
   Em7        A7        Em7  F#m7 G7M  A7(4/9)
E|-----0------------------------------------|
B|-3---3-3-3--2-2----2--3-3--2-2--3-3--3-3--|
G|-0---0-0-0--0-0----0--0-0--2-2--4-4--4-4--|
D|-2-----2-2--2---2-----2-2--2-2--4-4--5-5--|
A|------------0------------------------0----|
E|---0---0----------0---0----2----3---------|
 
Parte 3 de 4
   D6               F#m7
E|-2-2-2-2-2-2---2--------------------------|
B|-0-0-0-0-0-0---0--2---2-2-2-2-2-----2-----|
G|-2-2-2-2-2-2---2--2---2-2-2-2-2-----2-----|
D|-0---0---0---0----2---2-2-2-2---2---------|
A|------------------------------------------|
E|--------------------2---2---2-----2-------|
 
Parte 4 de 4
   Em7       Em7/D     C#m7(5-)  F#7
E|-----0-----0-0----0------------2-3-2-3-2-3|
B|-3---3-3-3-3-3----3--5---5-5-5-2----------|
G|-0---0-0-0-0---0-----4---4-4-4-3----------|
D|-2-----2-2-0-----0---5---5-5-5------------|
A|-----------------------4---4--------------|
E|---0---0-----------------------2----------|

D7M
    Você já disse que me quer
F#m7
     Pra toda a vida, eternidade
                Em7      A7
Quando está distante de mim
            Em7  F#m7  G7M  A7(4/9)
Fica louca de   sau___da___de
D6                             F#m7
   Que é a razão do seu viver sou eu
                  Em7      Em7/D
Está tudo bem, eu acredito
               C#m7(5-)   F#7
Eu não tô duvidando disso

[Segunda Parte] 

[Tab - Segunda Parte]

Parte 1 de 4
   Bm7                  F#m7
E|-2----------------------------------------|
B|-3-3-3-3-3-3---3---3--2---2-2-2-2-2-2---2-|
G|-2-2-2-2-2-2---2---2--2---2-2-2-2-2-2---2-|
D|---4-4-4-4---4--------2---2-2-2-2-2-2---2-|
A|-2---2---2-------2------------------------|
E|------------------------2---2---2-----2---|
 
Parte 2 de 4
   G7M       F#7         Bm7
E|---------------------------2--------------|
B|-3---3-3-3--2-2-----2--3---3-3-3-3-3-3---3|
G|-4---4-4-4--3-3-----3--2---2-2-2-2-2-2---2|
D|-4---4-4-4--2---2------4-----4-4-4-4-4---4|
A|-------------------------2---2---2-----2--|
E|---3---3----2-----2-----------------------|
 
Parte 3 de 4
   A7(4)      A7         D7M
E|-----0-----------------2---2-2-2-2-2-2---2-|
B|-3---3-3-3--2-2----2---2---2-2-2-2-2-2---2-|
G|-0---0-0-0--0-0----0---2---2-2-2-2-2-2---2-|
D|-2-----2-2--2---2--------0---0---0-----0---|
A|---0---0----0-----0------------------------|
E|-------------------------------------------|

Parte 4 de 4
   C#m7(5-)   F#7(13-)   Bm7        D7(4/9)
E|------------------------------------------|
B|-5---5-5-5--3-3-----3--3---3-3-3--5-5-5-5-|
G|-4---4-4-4--3-3-----3--2---2-2-2--5-5-5-5-|
D|-5---5-5-5--2---2------4---4-4-4--5-5-5-5-|
A|---4---4-----------------2---2----5---5---|
E|------------2-----2-----------------------|

Bm7
    Só que eu tenho muito medo
           F#m7
De me apaixonar
G7M                   F#7          Bm7
    Esse filme já passou na minha vida
A7(4)            A7      D7M
E você tá me ajudando a superar
C#m7(5-)                      F#7  
         Eu não quero ser um mal 
        Bm7  
Na sua vida

[Refrão] 

[Tab - Refrão]

Parte 1 de 4 
   G7M      F#7      Bm7        D7(9)
E|------------------------------------------|
B|-3-3-3-3--2-2---2--3---3-3-3--5-5-----5---|
G|-4-4-4-4--3-3---3--2---2-2-2--5-5-----5---|
D|-4-4-4-4--2-2---2--4---4-4-4--4---4-------|
A|---------------------2---2----5-----5-----|
E|-3---3----2---2---------------------------|

Parte 2 de 4
   G7M        F#7        Bm7  Bbm7 Am7  D7(9)
E|-------------------------7----6----5------|
B|-3---3-3-3--2-2-----2--7-7--6-6--5-5--5-5-|
G|-4---4-4-4--3-3-----3--7-7--6-6--5-5--5-5-|
D|-4---4-4-4--2---2------7----6----5----4-4-|
A|--------------------------------------5---|
E|---3---3----2-----2----7----6----5--------|
 
Parte 3 de 4
   C#m7(5-)   F#7(13-)   Bm7        D7(4/9)
E|------------------------------------------|
B|-5---5-5-5--3-3-----3--3---3-3-3--5-5-5-5-|
G|-4---4-4-4--3-3-----3--2---2-2-2--5-5-5-5-|
D|-5---5-5-5--2---2------4---4-4-4--5-5-5-5-|
A|---4---4-----------------2---2----5---5---|
E|------------2-----2-----------------------|
 
Parte 4 de 4
   C#m7(5-)   F#7(13-)    
E|------------------------------------------|
B|-5---5-5-5--3-3-----3---------------------|
G|-4---4-4-4--3-3-----3---------------------|
D|-5---5-5-5--2---2-------------------------|
A|---4---4----------------------------------|
E|------------2-----2-----------------------|

 D7(4/9)     G7M   F#7  Bm7
Deixa acontecer naturalmente
D7(9)         G7M   F#7   Bm7  Bbm7
Eu não quero ver você chorar
 Am7    D7(9)  G7M   F#7      Bm7
Deixa que  o amor encontre a gente
 D7(9)      C#m7(5-)  F#7(13-)  Bm7  
Nosso caso vai      etern_____izar

 D7(4/9)     G7M   F#7  Bm7
Deixa acontecer naturalmente
D7(9)         G7M   F#7   Bm7  Bbm7
Eu não quero ver você chorar
 Am7    D7(9)  G7M   F#7      Bm7
Deixa que  o amor encontre a gente
 D7(9)      C#m7(5-)  F#7(13-) 
Nosso caso vai      eternizar

[Final] G7M  F#7  B7(4/9)

[Tab - Final]

   G7M      F#7            B7(4/9)    
E|---2------3-5-3-2--------0----------------|
B|---3-3----2-----------0--2----------------|
G|---4---4--3---------2----2----------------|
D|------------------4-----------------------|
A|-------------------------2----------------|
E|-3---3----2-------------------------------|
00:00 / 00:00
Outros vídeos desta música
Repetir
Outros vídeos desta música
Composição de Alex Freitas / Carlos Caetano
1.584.799 exibições
  • Simplificar cifra
    • ½ Tom
    • Am
    • Bbm
    • Bm
    • Cm
    • C#m
    • Dm
    • Ebm
    • Em
    • Fm
    • F#m
    • Gm
    • G#m
  • Adicionar à lista

    0 comentários

    Ver todos os comentários

    Entre para oCifra Club PRO

    Tenha acesso a benefícios exclusivos no App e no Site

    • Chega de anúncios

    • Prioridade de compra em lançamentos

    • Mais recursos no app do Afinador

    • Atendimento Prioritário

    • Descontos nos produtos Cifra Club

    • Ajude a produzir mais conteúdo

    00:00 / 00:00
    Capítulos
    • Tocando a Música
    • Acordes da Música
    • Tocando Introdução
    • Ensinando Introdução
    • Acordes Refrão
    • Tocando Refrão
    • Ensinando Refrão
    • Acordes Primeira Parte
    • Tocando Primeira Parte
    • Ensinando Primeira Parte
    • Acordes Segunda Parte
    • Tocando Segunda Parte
    • Ensinando Segunda Parte
    • Ensinando Final
    • Encerramento

    Cifra Club Pro

    Aproveite o Cifra Club com benefícios exclusivos e sem anúncios
    Cifra Club Pro
    Aproveite o Cifra Club com benefícios exclusivos e sem anúncios
    OK