Cifra Club

Aprenda

Unholy Warcry

Rhapsody

Cifra: Principal (violão e guitarra)
Tom: D
Guitarra
                                                                                   
D||-------------------|-------------------|-------------------|-------------------|
A||-------------------|-------------------|-------------------|-------------------|
F||--7----------------|--7----------------|--7----------------|--7----------------|
C||--7----------------|--7----------------|--7----------------|--7----------------|
G||--5----------------|--5----------------|--5----------------|--5----------------|
D||-------------------|-------------------|-------------------|-------------------|


                                                                                   
----------------------|-------------------|-------------------|-------------------|
----------------------|-------------------|-------------------|-------------------|
--8----8----8----8----|--7----------------|--7----------------|--7----------------|
--6----6----6----6----|--7----------------|--7----------------|--7----------------|
--6----6----6----6----|--5----------------|--5----------------|--5----------------|
----------------------|-------------------|-------------------|-------------------|


                                                                  
-------------------|----------------------|----------------------|
-------------------|----------------------|----------------------|
--7----------------|--8----8----8----8----|--8----8----8----8----|
--7----------------|--6----6----6----6----|--6----6----6----6----|
--5----------------|--6----6----6----6----|--6----6----6----6----|
-------------------|----------------------|----------------------|


                                                                   
------------------------------------------------------------------|
------------------------------------------------------------------|
------------------------------------------------------------------|
----------------------------------------------------------3-2-0---|
--5-5-5-5-5-5-5-5-5-5-5-5-5-5-5-5-5-5-5-5-5-5-5-5-5-5-5-5-------4-|
------------------------------------------------------------------|


                                                                   
------------------------------------------------------------------|
------------------------------------------------------------------|
------------------------------------------------------------------|
----------------------------------------------------------3-2-0---|
--5-5-5-5-5-5-5-5-5-5-5-5-5-5-5-5-5-5-5-5-5-5-5-5-5-5-5-5-------4-|
------------------------------------------------------------------|


                                                                   
------------------------------------------------------------------|
------------------------------------------------------------------|
------------------------------------------------------------------|
----------------------------------------------------------3-2-0---|
--5-5-5-5-5-5-5-5-5-5-5-5-5-5-5-5-5-5-5-5-5-5-5-5-5-5-5-5-------4-|
------------------------------------------------------------------|


                                                                                          
------------------------------------------------------------------|----------------------|
------------------------------------------------------------------|----------------------|
------------------------------------------------------------------|--8----8----8----8----|
----------------------------------------------------------3-2-0---|--6----6----6----6----|
--5-5-5-5-5-5-5-5-5-5-5-5-5-5-5-5-5-5-5-5-5-5-5-5-5-5-5-5-------4-|--6----6----6----6----|
------------------------------------------------------------------|----------------------|


                                                                   
------------------------------------------------------------------|
------------------------------------------------------------------|
------------------------------------------------------------------|
----------------------------------------------------------3-2-0---|
--5-5-5-5-5-5-5-5-5-5-5-5-5-5-5-5-5-5-5-5-5-5-5-5-5-5-5-5-------4-|
------------------------------------------------------------------|


                                                                   
------------------------------------------------------------------|
------------------------------------------------------------------|
------------------------------------------------------------------|
----------------------------------------------------------3-2-0---|
--5-5-5-5-5-5-5-5-5-5-5-5-5-5-5-5-5-5-5-5-5-5-5-5-5-5-5-5-------4-|
------------------------------------------------------------------|


                                                                   
------------------------------------------------------------------|
------------------------------------------------------------------|
------------------------------------------------------------------|
----------------------------------------------------------3-2-0---|
--5-5-5-5-5-5-5-5-5-5-5-5-5-5-5-5-5-5-5-5-5-5-5-5-5-5-5-5-------4-|
------------------------------------------------------------------|


                                                                                          
------------------------------------------------------------------|----------------------|
------------------------------------------------------------------|----------------------|
------------------------------------------------------------------|--8----8----8----8----|
----------------------------------------------------------3-2-0---|--6----6----6----6----|
--5-5-5-5-5-5-5-5-5-5-5-5-5-5-5-5-5-5-5-5-5-5-5-5-5-5-5-5-------4-|--6----6----6----6----|
------------------------------------------------------------------|----------------------|


                                                                                     
----------------------|------|------|-------------------|---|-----------------------|
----------------------|------|------|-------------------|---|-----------------------|
--8----8----8----8----|------|------|--7----------------|---|--10----9----14--------|
--6----6----6----6----|------|------|--7----------------|---|--10----9----14--------|
--6----6----6----6----|------|------|--5----------------|---|--8-----7----12--------|
----------------------|------|------|-------------------|---|-----------------------|


                                                                   
------------------------------------------------------------------|
------------------------------------------------------------------|
------------------------------------------------------------------|
--3-3-3-3-3-3-3-3-----------------5-5-5-5-5-5-5-5-----------------|
------------------3-3-3-3-3-3-3-3-----------------5-5-5-5-5-5-5-5-|
------------------------------------------------------------------|


                                                                   
------------------------------------------------------------------|
------------------------------------------------------------------|
------------------------------------------------------------------|
------------------------------------------------------------------|
--1-1-1-1-1-1-1-1-1-1-1-1-1-1-1-1---------------------------------|
----------------------------------4-4-4-4-4-4-4-4-4-4-4-4-4-4-4-4-|


                                                                                   
------------------------------------------------------------------|---|---|---|---|
------------------------------------------------------------------|---|---|---|---|
------------------------------------------------------------------|---|---|---|---|
--3-3-3-3-3-3-3-3-----------------5-5-5-5-5-5-5-5-----------------|---|---|---|---|
------------------3-3-3-3-3-3-3-3-----------------5-5-5-5-5-5-5-5-|---|---|---|---|
------------------------------------------------------------------|---|---|---|---|


                                                                   
------------------------------------------------------------------|
------------------------------------------------------------------|
------------------------------------------------------------------|
----------------------------------------------------------3-2-0---|
--5-5-5-5-5-5-5-5-5-5-5-5-5-5-5-5-5-5-5-5-5-5-5-5-5-5-5-5-------4-|
------------------------------------------------------------------|


                                                     
----------------------------------------------------|
----------------------------------------------------|
----------------------------------10--9--7----------|
----------------------------------10--9--7--3-2-0---|
--5-5-5-5-5-5-5-5-5-5-5-5-5-5-5-5-8---7--5--------4-|
----------------------------------------------------|


                                                                   
------------------------------------------------------------------|
------------------------------------------------------------------|
------------------------------------------------------------------|
----------------------------------------------------------3-2-0---|
--5-5-5-5-5-5-5-5-5-5-5-5-5-5-5-5-5-5-5-5-5-5-5-5-5-5-5-5-------4-|
------------------------------------------------------------------|


                                                                        
-----------------------------------------------|-----------------------|
-----------------------------------------------|-----------------------|
----------------------------------10--9--7-----|--10----9----14--------|
----------------------------------10--9--7--3/-|--10----9----14--------|
--5-5-5-5-5-5-5-5-5-5-5-5-5-5-5-5-8---7--5--3/-|--8-----7----12--------|
-----------------------------------------------|-----------------------|


                                                                   
------------------------------------------------------------------|
------------------------------------------------------------------|
------------------------------------------------------------------|
--3-3-3-3-3-3-3-3-----------------5-5-5-5-5-5-5-5-----------------|
------------------3-3-3-3-3-3-3-3-----------------5-5-5-5-5-5-5-5-|
------------------------------------------------------------------|


                                                                   
------------------------------------------------------------------|
------------------------------------------------------------------|
------------------------------------------------------------------|
------------------------------------------------------------------|
--1-1-1-1-1-1-1-1-1-1-1-1-1-1-1-1---------------------------------|
----------------------------------4-4-4-4-4-4-4-4-4-4-4-4-4-4-4-4-|


                                                                                   
------------------------------------------------------------------|---|---|---|---|
------------------------------------------------------------------|---|---|---|---|
------------------------------------------------------------------|---|---|---|---|
--3-3-3-3-3-3-3-3-----------------5-5-5-5-5-5-5-5-----------------|---|---|---|---|
------------------3-3-3-3-3-3-3-3-----------------5-5-5-5-5-5-5-5-|---|---|---|---|
------------------------------------------------------------------|---|---|---|---|


                                                                   
------------------------------------------------------------------|
------------------------------------------------------------------|
------------------------------------------------------------------|
--4-4-4-4-4-4-4-4-4-4-4-4-4-4-4-4---------------------------------|
----------------------------------4-4-4-4-4-4-4-4-4-4-4-4-4-4-4-4-|
------------------------------------------------------------------|


                                                                   
------------------------------------------------------------------|
------------------------------------------------------------------|
------------------------------------------------------------------|
------------------------------------------------------------------|
--5-5-5-5-5-5-5-5-5-5-5-5-5-5-5-5-4-4-4-4-4-4-4-4-4-4-4-4-4-4-4-4-|
------------------------------------------------------------------|


                                                                   
------------------------------------------------------------------|
------------------------------------------------------------------|
------------------------------------------------------------------|
--4-4-4-4-4-4-4-4-4-4-4-4-4-4-4-4---------------------------------|
----------------------------------4-4-4-4-4-4-4-4-4-4-4-4-4-4-4-4-|
------------------------------------------------------------------|


                                                                                       
------------------------------------------------------------------|-------------------|
------------------------------------------------------------------|-------------------|
------------------------------------------------------------------|-------------------|
------------------------------------------------------------------|--4----------------|
--5-5-5-5-5-5-5-5-5-5-5-5-5-5-5-5-4-4-4-4-4-4-4-4-4-4-4-4-4-4-4-4-|--4----------------|
------------------------------------------------------------------|--2----------------|


                                   (voz- somente teclados )                                      

                                                                                                   
|-------------------|-------------------|-------------------|-------------------|
|-------------------|-------------------|-------------------|-------------------|
|-------------------|--6----------------|-------------------|--9----------------|
|--7----------------|--6----------------|--7----------------|--9----------------|
|--7----------------|--4----------------|--7----------------|--7----------------|
|--5----------------|-------------------|--5----------------|-------------------|


                                                                               
------------------|------------------|--------------------|-------------------|
------------------|------------------|--------------------|-------------------|
------------------|------------------|--------------------|-------------------|
------------------|------------------|--7--------5--------|--2----------------|
------------------|------------------|--7--------5--------|--2----------------|
------------------|------------------|--5--------3--------|--0----------------|


                                                                   
------------------------------------------------------------------|
------------------------------------------------------------------|
------------------------------------------------------------------|
--4-4-4-4-4-4-4-4-4-4-4-4-4-4-4-4---------------------------------|
----------------------------------4-4-4-4-4-4-4-4-4-4-4-4-4-4-4-4-|
------------------------------------------------------------------|


                                                                   
------------------------------------------------------------------|
------------------------------------------------------------------|
------------------------------------------------------------------|
------------------------------------------------------------------|
--5-5-5-5-5-5-5-5-5-5-5-5-5-5-5-5-4-4-4-4-4-4-4-4-4-4-4-4-4-4-4-4-|
------------------------------------------------------------------|


                                                                   
------------------------------------------------------------------|
------------------------------------------------------------------|
------------------------------------------------------------------|
--4-4-4-4-4-4-4-4-4-4-4-4-4-4-4-4---------------------------------|
----------------------------------4-4-4-4-4-4-4-4-4-4-4-4-4-4-4-4-|
------------------------------------------------------------------|


                                                                   
------------------------------------------------------------------|
------------------------------------------------------------------|
------------------------------------------------------------------|
------------------------------------------------------------------|
--5-5-5-5-5-5-5-5-5-5-5-5-5-5-5-5-4-4-4-4-4-4-4-4-4-4-4-4-4-4-4-4-|
------------------------------------------------------------------|


                                                                   
------------------------------------------------------------------|
------------------------------------------------------------------|
------------------------------------------------------------------|
--4-4-4-4-4-4-4-4-4-4-4-4-4-4-4-4---------------------------------|
----------------------------------4-4-4-4-4-4-4-4-4-4-4-4-4-4-4-4-|
------------------------------------------------------------------|


                                                                   
------------------------------------------------------------------|
------------------------------------------------------------------|
------------------------------------------------------------------|
------------------------------------------------------------------|
--5-5-5-5-5-5-5-5-5-5-5-5-5-5-5-5-4-4-4-4-4-4-4-4-4-4-4-4-4-4-4-4-|
------------------------------------------------------------------|


                                                                   
------------------------------------------------------------------|
------------------------------------------------------------------|
------------------------------------------------------------------|
--4-4-4-4-4-4-4-4-4-4-4-4-4-4-4-4---------------------------------|
----------------------------------4-4-4-4-4-4-4-4-4-4-4-4-4-4-4-4-|
------------------------------------------------------------------|


                                                                   
------------------------------------------------------------------|
------------------------------------------------------------------|
------------------------------------------------------------------|
------------------------------------------------------------------|
--5-5-5-5-5-5-5-5-5-5-5-5-5-5-5-5-4-4-4-4-4-4-4-4-4-4-4-4-4-4-4-4-|
------------------------------------------------------------------|


                                                                                                   
--------------------14-17----------------------14-------------------------------------------------|
-----------------14-------15----------------15----16----------------------16-17-------------------|
--------------14-------------16----------16----------17----------------17-------18----------------|
-----------16-------------------16----16----------------18----------18-------------18-------------|
--------16-------------------------16----------------------18----18-------------------19-16-------|
--14-17-------------------------------------------------------18----------------------------16-12-|


                                                                                                   
--------------------14-17----------------------14-------------------------------------------------|
-----------------14-------15----------------15----16----------------------16-17-------------------|
--------------14-------------16----------16----------17----------------17-------18----------------|
-----------16-------------------16----16----------------18----------18-------------18-------------|
--------16-------------------------16----------------------18----18-------------------19-16-------|
--14-17-------------------------------------------------------18----------------------------16-12-|


                                                                                                   
--------------------17-21-19----------------------------------------------------------------------|
-----------------17----------21----------------21-22-------------------19-21----------------------|
--------------18----------------21----------21-------23-20----------20-------21-18----------------|
-----------19----------------------21----21----------------22----22----------------18-------------|
-----16-19----------------------------21----------------------21----------------------19-16-12----|
--17-------------------------------------------------------------------------------------------12-|


                                                                                                   
--------------------14-17----------------------14-------------------------------------------------|
-----------------14-------15----------------15----16----------------------17----------------------|
--------------14-------------16----------16----------17----------------17----18-------18----------|
-----------16-------------------16----16----------------18----------18----------18-------18-------|
--------16-------------------------16----------------------18----18----------------19-------18-16-|
--14-17-------------------------------------------------------18----------------------------------|


                                                                                             
--------------------------21----------------------16----------------17----------------------|
--21-17-------17-------------21-------21-------------19-17-16----------17-------17----------|
--------18-------18-------------21-18----21-18----------------18-17-------17-14----17-------|
-----------18-------18-------------------------18-------------------------------------19----|
-----------------------19----------------------------------------------------------------19-|
--------------------------------------------------------------------------------------------|


                                                                                                   
--20-17-------17----------24-20-17----20-17-------20-17----17-------------------------------------|
--------17-------17----------------17-------17----------17----17----17----17----------------------|
-----------17-------17-14----------------------17----------------17----17----18-------18----------|
--------------------------------------------------------------------------------18-------18-------|
-----------------------------------------------------------------------------------19-------18-16-|
--------------------------------------------------------------------------------------------------|


                                                                                             
--------------------------21----------------------16----------------17----------------------|
--21-17-------17-------------21-------21-------------19-17-16----------17-------17----------|
--------18-------18-------------21-18----21-18----------------18-17-------17-14----17-------|
-----------18-------18-------------------------18-------------------------------------19----|
-----------------------19----------------------------------------------------------------19-|
--------------------------------------------------------------------------------------------|


                                                                     
--20-17-------17----------24-20-17----17----21-------------------21-|
--------17-------17----------------17----------21-21-21-21-21-21----|
-----------17-------17-14-------------------------------------------|
--------------------------------------------------------------------|
--------------------------------------------------------------------|
--------------------------------------------------------------------|


                                                                                       
--------------------------------------------------------------------------------------|
--21----------------------21-------21----21-21----------------------------------------|
-----21-21-21-21-21-23-25----21-------21-------21-21----------------------------------|
--------------------------------23-------------------18----18-18----17-18-----3-0-----|
--------------------------------------------------------18-------21-------16------3-4-|
--------------------------------------------------------------------------------------|


                              (solo )

(base )                          
----------------------------------|----------------------------------|
----------------------------------|----------------------------------|
----------------------------------|----------------------------------|
--6-6-6-6-6-6-6-6-6-6-6-6---------|--6-6-6-6-6-6-6-6---------6-6-6-6-|
--4-4-4-4-4-4-4-4-4-4-4-4-6-6-6-6-|--4-4-4-4-4-4-4-4-6-6-6-6-4-4-4-4-|
--------------------------4-4-4-4-|------------------4-4-4-4---------|


                                                                                 
----------------------------------------------|---------------------------------|
----------------------------------------------|---------------------------------|
----------------------------------------------|---------------------------------|
--10-10-10-10-10-10-10-10-10-10-10-10-5-5-5-5-|--6-6-6-6-6-6-6-6---------6-6-6--|
--8--8--8--8--8--8--8--8--8--8--8--8--3-3-3-3-|--4-4-4-4-4-4-4-4-6-6-6-6-4-4-4--|
----------------------------------------------|------------------4-4-4-4--------|


                                                                                    
----9-----9------------9--|------------9---------------|-----9-----9------------9--|
-------9-----9--7--10-----|--9--7--10-----9--7---------|--------9-----9--7--10-----|
--------------------------|---------------------9--8-6-|--6------------------------|
--------------------------|----------------------------|---------------------------|
--------------------------|----------------------------|---------------------------|
--------------------------|----------------------------|---------------------------|


                                                                                    
------------9---------------|--------------------------|---------------------------|
--9--7--10-----9--7---------|--------------------------|--------------7--5--4--4---|
---------------------9--8-6-|--6--6-----6-----------6--|-----------6-------------7-|
----------------------------|-----6--6--6--6--7--4--6--|--6--7--4--6---------------|
----------------------------|--------6-----6--7--4-----|--6--7--4------------------|
----------------------------|--------------------------|---------------------------|


                                                                  
--------------------------|--------------------------------------|
--------------------------|--------------7--5--4-----------------|
--6--6-----6-----------6--|-----------6--------------------------|
-----6--6--6--6--7--4--6--|--6--7--4--6------------------4-2-0---|
--------6-----6--7--4-----|--6--7--4--------------4------------4-|
--------------------------|--------------------------------------|


                                                                      
----------------------------------|----------------------------------|
----------------------------------|----------------------------------|
----------------------------------|----------------------------------|
--6-6-6-6-6-6-6-6-6-6-6-6---------|--6-6-6-6-6-6-6-6---------6-6-6-6-|
--4-4-4-4-4-4-4-4-4-4-4-4-6-6-6-6-|--4-4-4-4-4-4-4-4-6-6-6-6-4-4-4-4-|
--------------------------4-4-4-4-|------------------4-4-4-4---------|


                                                                                                 
----------------------------------------------|-------------------------------------|---|---|---|
----------------------------------------------|-------------------------------------|---|---|---|
----------------------------------------------|-------------------------------------|---|---|---|
--10-10-10-10-10-10-10-10-10-10-10-10-5-5-5-5-|--6-6-6-6-6-6-6-6---------6-6-6------|---|---|---|
--8--8--8--8--8--8--8--8--8--8--8--8--3-3-3-3-|--4-4-4-4-4-4-4-4-6-6-6-6-4-4-4------|---|---|---|
----------------------------------------------|------------------4-4-4-4------------|---|---|---|

(guitarra-solo)
--16----------------------16-17-------16----------------------------------|
-----19-17-16----16-17-19-------19-16----19-17-16----16-17-19-17-16-14-13-|
--------------18----------------------------------18----------------------|
--------------------------------------------------------------------------|
--------------------------------------------------------------------------|
--------------------------------------------------------------------------|


                                                                         
--16----------------------16-17-------16--------------------------------|
-----19-17-16----16-17-19-------19-16----19-17-16----16-17-19-17-16-14--|
--------------18----------------------------------18--------------------|
------------------------------------------------------------------------|
------------------------------------------------------------------------|
------------------------------------------------------------------------|


                                                                           
--20----------------------20-21-------20----------------------------------|
-----23-21-20----20-21-23-------23-20----23-21-20----20-21-23-21-20-18-17-|
--------------22----------------------------------22----------------------|
--------------------------------------------------------------------------|
--------------------------------------------------------------------------|
--------------------------------------------------------------------------|


                                                                         
--16----------------------16-17-------16--------------------------------|
-----19-17-16----16-17-19-------19-16----19-17-16----16-17-19-17-16-14--|
--------------18----------------------------------18--------------------|
------------------------------------------------------------------------|
------------------------------------------------------------------------|
------------------------------------------------------------------------|


                                                                                           
------21-23-24-23-21---21----21-19--------|-----------------------------------------------|
---21---------------------22-------22-21--|------19-21-22-19------------------------------|
------------------------------------------|------------------21--18-21-20/21/20-17-20-18--|
------------------------------------------|---23------------------------------------------|
------------------------------------------|-----------------------------------------------|
------------------------------------------|-----------------------------------------------|


                                                                                              
------21-23-24-23-21---21-21b21-19--------|-------------------------------------18-19-20-21--|
---21------------------------------22-21--|----19-19-21-22-19-17-17-19-21-17-21--------------|
------------------------------------------|--------------------------------------------------|
------------------------------------------|--------------------------------------------------|
------------------------------------------|--------------------------------------------------|
------------------------------------------|--------------------------------------------------|


                                                                                           
------21-23-24-23-21---21----21-19--------|-----------------------------------------------|
---21---------------------22-------22-21--|------19-21-22-19------------------------------|
------------------------------------------|------------------21--18-21-20/21/20-17-20-18--|
------------------------------------------|---23------------------------------------------|
------------------------------------------|-----------------------------------------------|
------------------------------------------|-----------------------------------------------|


                                                                                                    
------21-23-24-23-21---21-21b21-19--------|-------------------------------------18-19-23-21--------|
---21------------------------------22-21--|----19-19-21-22-19-17-17-19-21-17-21--------------------|
------------------------------------------|--------------------------------------------------------|
------------------------------------------|--------------------------------------------------------|
------------------------------------------|--------------------------------------------------------|
------------------------------------------|--------------------------------------------------------|


                                                                           
--16----------------------16-17-------16----------------------------------|
-----19-17-16----16-17-19-------19-16----19-17-16----16-17-19-17-16-14-13-|
--------------18----------------------------------18----------------------|
--------------------------------------------------------------------------|
--------------------------------------------------------------------------|
--------------------------------------------------------------------------|


                                                                         
--16----------------------16-17-------16--------------------------------|
-----19-17-16----16-17-19-------19-16----19-17-16----16-17-19-17-16-14--|
--------------18----------------------------------18--------------------|
------------------------------------------------------------------------|
------------------------------------------------------------------------|
------------------------------------------------------------------------|


                                                                           
--20----------------------20-21-------20----------------------------------|
-----23-21-20----20-21-23-------23-20----23-21-20----20-21-23-21-20-18-17-|
--------------22----------------------------------22----------------------|
--------------------------------------------------------------------------|
--------------------------------------------------------------------------|
--------------------------------------------------------------------------|


                                                                                             
--16----------------------16-17-------16------------------------------------|---|---|---|---|
-----19-17-16----16-17-19-------19-16----19-17-16----16-17-19-17-16-14------|---|---|---|---|
--------------18----------------------------------18------------------------|---|---|---|---|
----------------------------------------------------------------------------|---|---|---|---|
----------------------------------------------------------------------------|---|---|---|---|
----------------------------------------------------------------------------|---|---|---|---|

( voz novamente )

                                                                       
---|------------------------------------------------------------------|
---|------------------------------------------------------------------|
---|------------------------------------------------------------------|
---|----------------------------------------------------------3-2-0---|
---|--5-5-5-5-5-5-5-5-5-5-5-5-5-5-5-5-5-5-5-5-5-5-5-5-5-5-5-5-------4-|
---|------------------------------------------------------------------|


                                                                   
------------------------------------------------------------------|
------------------------------------------------------------------|
------------------------------------------------------------------|
----------------------------------------------------------3-2-0---|
--5-5-5-5-5-5-5-5-5-5-5-5-5-5-5-5-5-5-5-5-5-5-5-5-5-5-5-5-------4-|
------------------------------------------------------------------|


                                                                   
------------------------------------------------------------------|
------------------------------------------------------------------|
------------------------------------------------------------------|
----------------------------------------------------------3-2-0---|
--5-5-5-5-5-5-5-5-5-5-5-5-5-5-5-5-5-5-5-5-5-5-5-5-5-5-5-5-------4-|
------------------------------------------------------------------|


                                                                                          
------------------------------------------------------------------|----------------------|
------------------------------------------------------------------|----------------------|
------------------------------------------------------------------|--8----8----8----8----|
----------------------------------------------------------3-2-0---|--6----6----6----6----|
--5-5-5-5-5-5-5-5-5-5-5-5-5-5-5-5-5-5-5-5-5-5-5-5-5-5-5-5-------4-|--6----6----6----6----|
------------------------------------------------------------------|----------------------|


                                                                                          
----------------------|------------------------------------------------------------------|
----------------------|------------------------------------------------------------------|
--8----8----8----8----|------------------------------------------------------------------|
--6----6----6----6----|----------------------------------------------------------3-2-0---|
--6----6----6----6----|--5-5-5-5-5-5-5-5-5-5-5-5-5-5-5-5-5-5-5-5-5-5-5-5-5-5-5-5-------4-|
----------------------|------------------------------------------------------------------|


                                                     
----------------------------------------------------|
----------------------------------------------------|
----------------------------------10--9--7----------|
----------------------------------10--9--7--3-2-0---|
--5-5-5-5-5-5-5-5-5-5-5-5-5-5-5-5-8---7--5--------4-|
----------------------------------------------------|


                                                                   
------------------------------------------------------------------|
------------------------------------------------------------------|
------------------------------------------------------------------|
----------------------------------------------------------3-2-0---|
--5-5-5-5-5-5-5-5-5-5-5-5-5-5-5-5-5-5-5-5-5-5-5-5-5-5-5-5-------4-|
------------------------------------------------------------------|


                                                                        
-----------------------------------------------|-----------------------|
-----------------------------------------------|-----------------------|
----------------------------------10--9--7-----|--10----9----14--------|
----------------------------------10--9--7--3/-|--10----9----14--------|
--5-5-5-5-5-5-5-5-5-5-5-5-5-5-5-5-8---7--5--3/-|--8-----7----12--------|
-----------------------------------------------|-----------------------|


                                                                   
------------------------------------------------------------------|
------------------------------------------------------------------|
------------------------------------------------------------------|
--3-3-3-3-3-3-3-3-----------------5-5-5-5-5-5-5-5-----------------|
------------------3-3-3-3-3-3-3-3-----------------5-5-5-5-5-5-5-5-|
------------------------------------------------------------------|


                                                                   
------------------------------------------------------------------|
------------------------------------------------------------------|
------------------------------------------------------------------|
------------------------------------------------------------------|
--1-1-1-1-1-1-1-1-1-1-1-1-1-1-1-1---------------------------------|
----------------------------------4-4-4-4-4-4-4-4-4-4-4-4-4-4-4-4-|


                                                                       
------------------------------------------------------------------|---|
------------------------------------------------------------------|---|
------------------------------------------------------------------|---|
--3-3-3-3-3-3-3-3-----------------5-5-5-5-5-5-5-5-----------------|---|
------------------3-3-3-3-3-3-3-3-----------------5-5-5-5-5-5-5-5-|---|
------------------------------------------------------------------|---|


                                                                   
------------------------------------------------------------------|
------------------------------------------------------------------|
------------------------------------------------------------------|
--3-3-3-3-3-3-3-3-----------------5-5-5-5-5-5-5-5-----------------|
------------------3-3-3-3-3-3-3-3-----------------5-5-5-5-5-5-5-5-|
------------------------------------------------------------------|


                                                                   
------------------------------------------------------------------|
------------------------------------------------------------------|
------------------------------------------------------------------|
------------------------------------------------------------------|
--1-1-1-1-1-1-1-1-1-1-1-1-1-1-1-1---------------------------------|
----------------------------------4-4-4-4-4-4-4-4-4-4-4-4-4-4-4-4-|


                                                                        (Final teclados )                        
------------------------------------------------------------------|---|---|---|---|---|---|---||
------------------------------------------------------------------|---|---|---|---|---|---|---||
------------------------------------------------------------------|---|---|---|---|---|---|---||
--3-3-3-3-3-3-3-3-----------------5-5-5-5-5-5-5-5-----------------|---|---|---|---|---|---|---||
------------------3-3-3-3-3-3-3-3-----------------5-5-5-5-5-5-5-5-|---|---|---|---|---|---|---||
------------------------------------------------------------------|---|---|---|---|---|---|---||
Colaboração e revisão:
  • Rafael
4.343 exibições
    • ½ Tom
    • A
    • Bb
    • B
    • C
    • Db
    • D
    • Eb
    • E
    • F
    • F#
    • G
    • Ab
  • Adicionar à lista

    0 comentários

    Mostrar mais comentários

    Conseguiu tocar?

    1 Tocaram 0 Ainda não

    Grave um vídeo tocando Unholy Warcry e mande pra gente!

    00:00 / 00:00
    outros vídeos desta música
    repetir qualidade Automático
    Outros vídeos desta música
    00:00 / 00:00
    Automático

    Cifra Club Pro

    Aproveite o Cifra Club com benefícios exclusivos e sem anúncios
    7 dias grátis
    Cifra Club Pro
    Aproveite o Cifra Club com benefícios exclusivos e sem anúncios
    7 dias grátis
    OK