You Can't Save Me

Richie Kotzen

Composição: Richie Kotzen
Tom: G
[Intro]

E|---------------------------------------------------------------------------|
B|---------------------------------------------------------------------------|
G|---------------------------------------------------------------------------|
D|---------------------------------------------------------------------------|
A|---5/7------7-----7----7-----10-10--9-\-5/--12-----12-------12-------------|
E|---0----00-0-0---0-0-0--0--0--0----0---0---0----0--0---0---0---------------|

E|---------------------------------------------------------------------------|
B|---------------------------------------------------------------------------|
G|---------------------------------------------------------------------------|
D|---------------------------------------------------------------------------|
A|---5/7------7-----7----7-----10-10--9-\-5\--2-------2--2-------------------|
E|---0----00-0-0---0-0-0--0--0--0----0---0---0-------0--0--------------------|

|Refrão|

E|---0---0---0---0---0---0-------0---0---0---0---0---0---0------|
B|---0---0---0---0---0---0-------0---0---0---0---0---0---0------|
G|---9---9---12--12--12--11h12---12--4---4---7---7---7---6h7h6~~|
D|---9---9---12--12--12--12------12--5---5---7---7---7---7------| 3x
A|--------------------------------------------------------------|
E|--------------------------------------------------------------|

E|---0---0---0---0---0---0-------0---0---0-------------------|
B|---0---0---0---0---0---0-------0---0---0-------------------|
G|---9---9---12--12--12--11h12---12--12--11~~----------------|
D|---9---9---12--12--12--12------12--12--12~~----------------|
A|-----------------------------------------------------------|
E|-----------------------------------------------------------|

[Ponte]

E|--3--3-------3--3-----------------------------------------|
B|--3--3-------3--3--3~~---x--x-------3--3------------------|
G|--0--0-------0--0--2~~---x--x-------2--2--2~~-------------|
D|--0--0--4b~~-0--0--0~~---4--4--4b~~-0--0--2~~-------------|
A|--x--x-------x--x--0~~---2--2-------0--0--0---------------|
E|--3--3-------3--3-----------------------------------------|

E|--3--3-------3--3-----------------------------------------|
B|--3--3-------3--3--3~~---x--x-----------------------------|
G|--0--0-------0--0--2~~---x--x-----------------------------|
D|--0--0--4b~~-0--0--0~~---4--4-----------------------------|
A|--x--x-------x--x--0~~---2--2-----------------------------|
E|--3--3-------3--3-----------------------------------------|

[Final]

E|----------------------------------------------------------|
B|----------------------------------------------------------|
G|----------------------------------------------------------|
D|----------------------------------------------------------|
A|---5/7------7-----7----7-----10-10--9~~-------------------|
E|---0----00-0-0---0-0-0--0--0--0----0----------------------|
Página 1 / 1

Letras e título
Acordes e artista

resetar configurações
OK