Cifra Club

You Can't Save Me

Richie Kotzen

Cifra: Principal (violão e guitarra)
exibições 13.564
Tom: G
Introdução e primeira parte da música...

e|---------------------------------------------------------------------------|
B|---------------------------------------------------------------------------|
G|---------------------------------------------------------------------------|
D|---------------------------------------------------------------------------|
A|---5/7------7-----7----7-----10-10--9-\-5/--12-----12-------12-------------|
E|---0----00-0-0---0-0-0--0--0--0----0---0---0----0--0---0---0---------------|


e|---------------------------------------------------------------------------|
B|---------------------------------------------------------------------------|
G|---------------------------------------------------------------------------|
D|---------------------------------------------------------------------------|
A|---5/7------7-----7----7-----10-10--9-\-5\--2-------2--2-------------------|
E|---0----00-0-0---0-0-0--0--0--0----0---0---0-------0--0--------------------|


Refrão

e|---0--------3-----2--------3-------2-------------------------------------
B|---1--------3-----3--------3-------3-------------------------------------
G|---0--------2-----2--------0-------2-------------------------------------
D|---2--------0-----0--------0-------0------------------------------------- 4x
A|---3-----------------------2---------------------------------------------
E|---------------------------3---------------------------------------------

Final da música

e|------------------------------------------------------------------------
B|-----------------------------------------------------------------------
G|----------------------------------------------7--7--------------------
D|----5-5-----5----5-----7--7-----9-9------7--7---7--7------------------ 2x
A|----5-5-----5----5-----7--7-----9-9------5--5---7--7------------------
E|----3-3-----3----3-----5--5-----7-7--------------5--5------------------

e|-------------------------------------------------------------------------
B|-------------------------------------------------------------------------
G|-------------------------------------------------------------------------
D|----5-5-----5----5-----7--7-----9-9-9-9-9--------------------------------
A|----5-5-----5----5-----7--7-----9-9-9-9-9--------------------------------
E|----3-3-----3----3-----5--5-----7-7-7-7--7-------------------------------

Final...
Acordes para:
    Composição: Richie Kotzen Colaboração e revisão:
    • Diego Martins

    0 comentários

    mostrar mais comentários

    Conseguiu tocar?

    3 tocaram 0 ainda não

    Grave um vídeo tocando You Can't Save Me e mande pra gente!

    00:00 / 00:00
    outros vídeos desta música
    repetir qualidade Automático
    Outros vídeos desta música
    00:00 / 00:00
    Automático
    OK