Cifra Club

When a Blind Man Cries

Richie Sambora

Cifra: Principal (violão e guitarra)
tom: D
intro
E|------7----------------------7--9--9rbr----------10--7------7--
B|----7---7-10b-10b~~-------7------------10p7------------10------
G|-9b------------------------------------------9-----------------
D|---------------------------------------------------------------
A|---------------------------------------------------------------
E|---------------------------------------------------------------

E|--12b---12b-12b-12b-12b-12b~~---10h12b-12b--12p10----10-12-----
B|--------------------------------------------------12-------12~-
G|---------------------------------------------------------------
D|---------------------------------------------------------------
A|---------------------------------------------------------------
E|---------------------------------------------------------------

E|--------7-9rb--7-----------------------------------------------
B|------7---------10p7-------------------------------------------
G|-9h10----------------9-7h9p7---------------------7-------------
D|-----------------------------9---------7----9------9~~~~-------
A|---------------------------------------7h9---------------------
E|---------------------------------------------------------------




verso

 if you're leaving...                     ..close the door..
E|---------------------------------------------------------------
B|-------------------------9~~-----------------------------------
G|-------------------------9~~-----------------------------------
D|----------------------0-------12p9/7-9~~---------------9-8-7---
A|---------------------------------------------------------------
E|---------------------------------------------------------------
                       PM                              

 .........             ........
E|---------------------------------------------------------------
B|---------------------------------------------------------------
G|--7h9-----------------------7h9p7---9/11~~~--------------------
D|------7h9-----7h9~~---------------9----------------------------
A|----------7h9--------------------------------------------------
E|---------------------------------------------------------------

E|---------------------------------------------------------------
B|---------------------------------------------------------------
G|---------------------------------------------------------------
D|---------7--------7--------------------------------------------
A|---7--9-----7--9-----7-----------------------------------------
E|---------------------------------------------------------------
   




refrao
E|-2------------------------3------3-2-0------0-0----------------
B|-3------------------------3------3-3-0----------3-3------------
G|-4--4------4/6/7---7------0------0-2-0-------------------------
D|-4--4--------------7------0------0-0-2-------------------------
A|-2--2------2/4/5---5------x------x-0-2-------------------------
E|-------------------5------3------3-2-0-------------------------

E|-2---------------------------3-2-0-----------------------------
B|-3---------------------------3-3-0-----------------------------
G|-4--4------4/6/7---7---------0-2-0---7--4----------------------
D|-4--4--------------7---------0-0-2---7--4----------------------
A|-2--2------2/4/5---5---------x-0-2---5--2----------------------
E|-------------------5---------3-2-0-----------------------------

solo 1
E|---------------------------------------------------------------
B|---------------------------------------------------------------
G|-4rbrbrbrbrbrbr------------------------------------------------
D|-----------------9p7-9/11\9~~--7h9p7--------7~~----------------
A|-------------------------------------9-7-5---------------------
E|---------------------------------------------------------------
                                      

E|---------------------------------------------------------------
B|-----------------------------------------7h8p7---7-------------
G|-----------------------------------------------9---9-7-9br-7---
D|-----7-9-9h10p9h10p9h10p9\7-9~~--------------------------------
A|-7-9-----------------------------------------------------------
E|---------------------------------------------------------------
 

E|---------------------------------------------------------------
B|--------------7h8p7--7------------------------10------10-------
G|------------7----------9b--7h9p7\6---------9b----9r------9b----
D|-10~~-------------------------------7--------------------------
A|--------------------------------------7------------------------
E|---------------------------------------------------------------

E|-7-------------------------7-10-7-10b---7---------10--7~~------
B|---7--10b--10b-10b~~----10----------------10p7-----------------
G|-----------------------------------------------9---------------
D|---------------------------------------------------------------
A|---------------------------------------------------------------
E|---------------------------------------------------------------

E|------------------------------------------------17-------------
B|-----10h12-12--12p10----10h12-12~~----------17b----17b---------
G|-/11-----------------11----------------------------------------
D|---------------------------------------------------------------
A|---------------------------------------------------------------
E|---------------------------------------------------------------
                

E|------------------------17-----17----------17b~~~~~~~~---------
B|-17p15----17p15-----17b----17b----17br-15----------------------
G|-------16-------16---------------------------------------------
D|---------------------------------------------------------------
A|---------------------------------------------------------------
E|---------------------------------------------------------------

E|-17b-17b-17b-17b-17b~~~~--17br-17-15-14------------------------
B|----------------------------------------15-----------15~~------
G|-------------------------------------------14~~---16-----------
D|---------------------------------------------------------------
A|---------------------------------------------------------------
E|---------------------------------------------------------------

E|-----7----------------7----------------------------------------
B|-7---7h10p7--10brbr-----10-9-7---------------------------------
G|-9b----------------------------10-9-7--------------------------
D|--------------------------------------9-8-7--------------------
A|--------------------------------------------9-8-7--5-5h7p5-----
E|-----------------------------------------------------------7~~-




verso

E|---------------------------------------------------------------
B|-9~~~----------7h10p7------------------------------------------
G|-9~~------------------9--7h9p7---------------------------------
D|----9p7--9~~-------------------9--7~~---------7h9-----7h9~~----
A|--------------------------------------------------7h9---------- repete o resto do verso
E|---------------------------------------------------------------



repete refrao




solo 2

E|---------------------------------------------------------------
B|---------------------------------------------------------------
G|-----7-7-7-----------------------------------------------------
D|-7h9-------9~~------------------0--2b*--2p0-----0----------0---
A|-----------------2p0---2~~---2--------------2-0---2~~----2---2-
E|---------------------2-----------------------------------------

E|---------------------------------------------------------------
B|----------------------------------------------10b~~--12p10-----
G|--------------/7---7-------7-9-9b~~------------------------11--
D|-2b-2b-2b-----/7h9---9---9-------------------------------------
A|---------------------------------------------------------------
E|---------------------------------------------------------------

E|-------10h12--12b-12b-12b-12p10--------------------------------
B|-10h12--------------------------12---12--15p12-----------------
G|-----------------------------------------------14--------------
D|---------------------------------------------------------------
A|---------------------------------------------------------------
E|---------------------------------------------------------------
                                          

E|----------------------------------7-------------7h10p7---------
B|-15h17p15--17b--17b-15------------7h10p7---------------7h10p7--
G|-----------------------16-16---9b------------9b----------------
D|---------------------------------------------------------------
A|---------------------------------------------------------------
E|---------------------------------------------------------------
                                 

E|---------------------------------------------------------------
B|-7-7-7-7-7-------------17b---17p15----15-17p15h17-17b-17b-17b--
G|-7-7-7-7-7-9br-7-7-----------------16--------------------------
D|---------------------------------------------------------------
A|---------------------------------------------------------------
E|---------------------------------------------------------------

E|---------------------------------------------------------------
B|-15-15h17~~----------------------------------------------------
G|--------------7h9-9p7------------------------------------------
D|----------------------9-7-9----0-2p0-0-2b----------------------
A|---------------------------------------------------------------
E|---------------------------------------------5-5-5-7-7-7-10-10-
                                              

E|-12b~~--10-12~~-10~~-------------------------------------------
B|---------------------------------------------------------------
G|---------------------------------------------------------------
D|---------------------------------------------------------------
A|---------------------------------------------------------------
E|---------------------------------------------------------------



repete refrao





solo final

E|----------------------7-9rb--9-7-------------------------------
B|---------------7--10b-------------10-9-7-----------------------
G|----------9h10-----------------------------10-9-7--------------
D|-9--7--9------------------------------------------9-7----------
A|------------------------------------------------------9-8-7----
E|---------------------------------------------------------------

E|---------------------------------------------------------------
B|---------------------------------------------------------------
G|---------------------------------------------------------------
D|---------------------------------------------------------------
A|--5-4\3\2~~----------------------------------------------------
E|---------------------------------------------------------------
00:00 / 00:00
Outros vídeos desta música
Repetir
Outros vídeos desta música
Composição de Deep Purple
Colaboração e revisão:
  • Lúcio Portella
3.834 exibições
    • ½ Tom
    • A
    • Bb
    • B
    • C
    • Db
    • D
    • Eb
    • E
    • F
    • F#
    • G
    • Ab
  • Adicionar à lista

    0 comentários

    Ver todos os comentários

    Entre para oCifra Club PRO

    Tenha acesso a benefícios exclusivos no App e no Site

    • Chega de anúncios

    • Prioridade de compra em lançamentos

    • Mais recursos no app do Afinador

    • Atendimento Prioritário

    • Descontos nos produtos Cifra Club

    • Ajude a produzir mais conteúdo

    00:00 / 00:00

    Cifra Club Pro

    Aproveite o Cifra Club com benefícios exclusivos e sem anúncios
    Cifra Club Pro
    Aproveite o Cifra Club com benefícios exclusivos e sem anúncios
    OK