Cifra Club

Te Amo

Rihanna

Cifra: Principal (violão e guitarra)
tom: A
(intro) B G#m

(riff 1)
E |-7-7---6--7-7---------------------6-
B |---------------7--9-9---7--9-9------
G |------------------------------------
D |------------------------------------
A |------------------------------------
E |------------------------------------

(riff 2)
E |-7-7---6--7-7-----------------------------------------------------------
B |---------------7--9-9---7--9-9---7--5-5---4--5-5---4--2-2---0--2-2---4--
G |------------------------------------------------------------------------
D |------------------------------------------------------------------------
A |------------------------------------------------------------------------
E |------------------------------------------------------------------------

(riff 3)
E |-7--7-7-7---6--7--7-7-7-------------------------------
B |--------------------------7--9--9-9-9---7--9--9-9-9---
G |------------------------------------------------------
D |------------------------------------------------------
A |------------------------------------------------------
E |------------------------------------------------------

(riff 1)
B
Te Amo, Te Amo
G#m            B                      G#m
She says to me, I hear the pain in her voice
       B                               G#m
Then we danced underneath the candelabra
                   E
She takes the lead

(riff 2)
                          F#
Thats when I saw it in her eye
It's over

(riff 1)
             G#m
Then she says Te Amo
                               E
Then she put her hand around me waist
I told her no,
         G#m
She cries Te Amo
                            E
Told her I'm not gonna run away
But let me go

   G#m            E
My soul is a Cry, without ask me why

(riff 2)
      C#m                               F#
I said Te Amo, somebody tell me what she said

                G#m         E
Don't it mean I love you
                G#m        E
Think it means I love you
               G#m
Don't it mean I love you

(riff 3)
G#m             E
Te Amo, Te Amo, she's scared to breathe
G#m                     E
I hold her hand, I got no choice uhh
            G#m                               E
Pull me out on the beach, danced in the water
I start to leave
 C#m                        F#
She's begging me and asking why
It's Over

             G#m
Then she says Te Amo
                               E
Then she put her hand around me waist
I told her no,
         G#m
She cries Te Amo
                            E
Told her I'm not gonna run away
But let me go

   G#m            E
My soul is a Cry, without ask me why

(riff 2)
      C#m                               F#
I said Te Amo, somebody tell me what she said

                G#m         E
Don't it mean I love you
                G#m        E
Think it means I love you
               E
Don't it mean I love you

Yes we can dance
                        G#m
But you gotta watch your hands
Watch me all night
I move under the light
               E
Because I understand
That we all need love
            C#m
And I'm not afraid to feel the love
                 F#
But I don't feel that way

             G#m
Then she says Te Amo
                               E
Then she put her hand around me waist
I told her no,
         G#m
She cries Te Amo
                            E
Told her I'm not gonna run away

But let me go

(riff 1)
   G#m            E
My soul is a Cry, without ask me why
      C#m                               F#
I said Te Amo, somebody tell me what she said

(riff 3)
                G#m         E
Don't it mean I love you
                G#m        E
Think it means I love you
               G#m
Don't it mean I love you
                C#m
Think it means I love you

F#
I love you
C#m
Te amo
       F#
Te amo

Don't it mean I love you

E |--------------------------------------------------4-----------
B |----------------------------------------------------4---------
G |-------3p4p3p2p3p2------------------------------------4-------
D |-------------------4------6-4p6p4-----------------------6-----
A |------------------------------------6-4--------------------6---
E |----------------------------------------6-4------------------4-
00:00 / 00:00
Outros vídeos desta música
Repetir
Outros vídeos desta música
Composição de James Fauntleroy II / Mikkel Storleer Eriksen / Rihanna / Tor Erik Hermansen
Colaboração e revisão:
  • anderson gatti
77.762 exibições
  • Simplificar cifra
    • ½ Tom
    • A
    • Bb
    • B
    • C
    • Db
    • D
    • Eb
    • E
    • F
    • F#
    • G
    • Ab
  • Adicionar à lista

    0 comentários

    Ver todos os comentários

    Conseguiu tocar?

    11 Tocaram 0 Ainda não

    Grave um vídeo tocando Te Amo e nos envie!

    Entre para oCifra Club PRO

    Tenha acesso a benefícios exclusivos no App e no Site

    • Chega de anúncios

    • Prioridade de compra em lançamentos

    • Mais recursos no app do Afinador

    • Atendimento Prioritário

    • Descontos nos produtos Cifra Club

    • Ajude a produzir mais conteúdo

    00:00 / 00:00

    Cifra Club Pro

    Aproveite o Cifra Club com benefícios exclusivos e sem anúncios
    Cifra Club Pro
    Aproveite o Cifra Club com benefícios exclusivos e sem anúncios
    OK