Cifra Club

Aprenda

Torches

Rise Against

Cifra: Principal (violão e guitarra)
tom: D
(1st guitar)
E |--------------------x3-|--------------------s-------|
B |-----------------------|--------------------l-------|
G |---------4-4--3-3-4----|--4-4-4-4--6-6-6-6--i-------|
D |--66--66-6-6--4-4-4----|--x-x-x-x--x-x-x-x--d-------|
A |--66-------------------|--2-2-2-2--4-4-4-4--e-------|
E |--44-------------------|--------------------!-------|

(repeat three times)

(2nd guitar)
E |--------------------------------------------------------|
B |----------2h4-------4p3-----2h4-------------------------|
G |---------------------------------4-4-4-4--6-6-6-6-------|
D |----6-6--------6-6------6-6------4-4-4-4--6-6-6-6-------|
A |----6-6--------6-6------6-6------2-2-2-2--4-4-4-4-------|
E |----4-4--------4-4------4-4-----------------------------|

E |------------------------|
B |------------------------|
G |-----------4444-6666----|
D |---6-------4444-6666----|
A |---6-many--2222-4444----|
E |---4-times--------------|

(repeat twice)

(verse) "on clearest days...."
ei----------------------------------------------|
B |----------------------------------------------|
G |----------4-----------------------------------|
D |---6------4-----4------6------2-----4---------|
A |---6------2-x8--4------6------2-----4---------|
E |---4-x16--------2-x8---4-x16--0-x8--2-x8------|
.....................................
(palm mute)

(repeat twice)

(chorus) "well if my hand could block the sun!"
E |-------------------------------------------------------------------------------------------------|
B |-------------------------------------------------------------------------------------------------|
G |--4-3------6-4--3----------------4-3------6-4---8/9---------------4-3-----6-4--3-----------------|
D |--4 3--44--6-4--3-4--6666666666--4-3--44--6-4---x/x---6666666666--4-3-44--6-4--3-4--666666666----|
A |--2-1--44--4-2--1-4--6666666666--2-1--44--4-2---6/7---6666666666--2-1-44--4-2--1-4--666666666----|
E |-------22---------2--4444444444-------22--------------4444444444------22---------2--444444444----|

then
E |------------------------------------------|
B |------------------------------------------|
G |--4-3------6-4--8/9----------------4------|
D |--4-3--44--6-4--x/x--222222222---4-4-4----|
A |--2-1--44--4-2--6/7--222222222---4-2-4----|
E |-------22------------000000000---2---2----|

(verse) " i can't remember exactly when"
ei----------------------------------------------------|
B |----------------------------------------------------|
G |-------------4444-----------------------------------|
D |--6666666666-4444-4444----666666666-2222-4444-------|
A |--6666666666-2222-4444----666666666-2222-4444-------|
E |--4444444444------2222----444444444-0000-2222-------|

(repeat twice)

(chorus) "well if my hand could block the sun"
E |-------------------------------------------------------------------------------------------------|
B |-------------------------------------------------------------------------------------------------|
G |--4-3------6-4--3----------------4-3------6-4---8/9---------------4-3-----6-4--3-----------------|
D |--4 3--44--6-4--3-4--6666666666--4-3--44--6-4---x/x---6666666666--4-3-44--6-4--3-4--666666666----|
A |--2-1--44--4-2--1-4--6666666666--2-1--44--4-2---6/7---6666666666--2-1-44--4-2--1-4--666666666----|
E |-------22---------2--4444444444-------22--------------4444444444------22---------2--444444444----|

then
E |------------------------------------------|
B |------------------------------------------|
G |--4-3------6-4--8/9----------------4------|
D |--4-3--44--6-4--x/x--222222222---4-4-4----|
A |--2-1--44--4-2--6/7--222222222---4-2-4----|
E |-------22------------000000000---2---2----|

(bridge) "so put your hand..."
E |----------------------------------------------------------------------------------------------|
B |----------4---4---4--------------4---4---4-------------4---4---4------------------------------|
G |--------4---4---4----44--------4---4---4----44--------4---4---4---44--------------------------|
D |-66666---------------44-44444---------------44-66666--------------44-44444-2------------6-----|
A |-66666---------------22-44444---------------22-66666--------------22-44444 2------------6-----|
E |-44444------------------22222------------------44444-----------------22222-0------------4-----|

(repeat twice)

(bridge) "let's break this down"
E |-------------------------------------------------------------------|
B |-------------------------------------------------------------------|
G |----------44---------44---------44---------------------------------|
D |--6666666-44-4444444-44-6666666-44-4444444----2------------6-------|
A |--6666666-22-4444444-22-6666666-22-4444444----2-let ring---6-------|
E |--4444444----2222222----4444444----2222222----0------------4-------|

(repeat this section twice)

(clean) "like angels dance..."
E |-----------------------------------------------------|
B |-----------------------------------------------------|
G |------4----------i don't know the rest of this-------|
D |---6----4--------and you'll have to figure it--------|
A |---6------6--4---out ..... sorry---------------------|
E |---4-------------------------------------------------|

(chorus) "well if my hand could block the sun"
E |-------------------------------------------------------------------------------------------------|
B |-------------------------------------------------------------------------------------------------|
G |--4-3------6-4--3----------------4-3------6-4---8/9---------------4-3-----6-4--3-----------------|
D |--4 3--44--6-4--3-4--6666666666--4-3--44--6-4---x/x---6666666666--4-3-44--6-4--3-4--666666666----|
A |--2-1--44--4-2--1-4--6666666666--2-1--44--4-2---6/7---6666666666--2-1-44--4-2--1-4--666666666----|
E |-------22---------2--4444444444-------22--------------4444444444------22---------2--444444444----|

(repeat this section 1 times then at the end play this)
E |------------------------------------------|
B |------------------------------------------|
G |--4-3------6-4--8/9----------------4------|
D |--4-3--44--6-4--x/x--222222222---4-4-4----|
A |--2-1--44--4-2--6/7--222222222---4-2-4----|
E |-------22------------000000000---2---2----|

"will we ever wake up"
E |-------------|
B |-------------|
G |-------------|
D |--4444444----|
A |--4444444----|
E |--2222222----|
...pm..

(outro)

(1st guitar)
E |--------------------x3-|------------|
B |-----------------------|------------|
G |---------4-4--3-3-4----|-4444-6666--|
D |--66--66-6-6--4-4-4----|-xxxx-xxxx--|
A |--66-------------------|-2222-4444--|
E |--44-------------------|------------|

E |----------------------x4--|-end--|
B |--------------------------|-on---|
G |-----------4444-6666------|------|
D |---6-------4444-6666------|--6---|
A |---6-many--2222-4444------|--6---|
E |---4-times----------------|--4---|

(1st guitar)
E |------------------------------------|--end--|
B |------------------------------------|--on---|
G |--13-many--11/13--13-11/13-8-16-18--|--13---|
D |---x-times--x/-x---x--x/-x-x--x--x--|---x---|
A |--11--------9/11--11--9/11-6-14-16--|--11---|
E |------------------------------------|-------|
Compositor não encontrado.
Colaboração e revisão:
  • Eric Lazzaretti
415 exibições
    • ½ Tom
    • A
    • Bb
    • B
    • C
    • Db
    • D
    • Eb
    • E
    • F
    • F#
    • G
    • Ab
  • Adicionar à lista

    0 comentários

    Ver todos os comentários

    Conseguiu tocar?

    0 Tocaram 0 Ainda não

    Grave um vídeo tocando Torches e nos envie!

    00:00 / 00:00
    Outros vídeos desta música
    Repetir Qualidade Automático
    Outros vídeos desta música
    00:00 / 00:00
    Automático

    Cifra Club Pro

    Aproveite o Cifra Club com benefícios exclusivos e sem anúncios
    Cifra Club Pro
    Aproveite o Cifra Club com benefícios exclusivos e sem anúncios
    OK