Cifra Club

Caso Sério

Rita Lee

Cifra: Principal
exibições 147.162
Tom: B
Intro: Bm7  C#m7  Bm7  C#m7

E|-----------------------------------------------|
A|--------------3-----------------5--------------|
D|--------------2-----------------4--------------|
G|---------x----2------------x----4--------------|
B|----0-2---------------0-2----------------------|
E|--2-----------2-----2-----------4--------------|

E|-----------------------------------------------|
A|--------------3--------------------------------|
D|--------------2-----------------0--------------|
G|---------x----2------------x----2--------------|
B|----0-2---------------0-2-------3--------------|
E|--2-----------2-----2-----------3--------------|



Primeira parte:


Bm            Bm7/A       F#m7
Eu  fico pensando em nós dois
B7/9-      Em9   G#m7(b5)
Cada um na sua, perdidos na
 C#7(9+)   C#7(9)  F#11 F#7
cida--------de nua
                

Segunda parte:

E|--------------------------------------|
A|--5-4-3-2-----------------------------|
D|----------3---------------------------|
G|------------4-------------------------|
B|--------------------------------------|
E|--------------------------------------|

                 Bm
Empapuçados de amor,
     Bm7/A        F#m7
Numa noite de verão,
B7/9-        Em9
Ai!Que coisa boa!
       G#m7(b5)
À meia-luz,
 C#7(9+) C#7(9) F#11 F#7
à sós,   à       to-a

Refrão:


E|----------------------------------------|
A|--5-4-3-2-------------------------------|
D|----------3-----------------------------|
G|------------4---------------------------|
B|----------------------------------------|
E|----------------------------------------|

                 B7+ A/B  B7
Você e eu somos um
       Em
Caso sério

E|---------------------------------------|
A|---------------------------------------|
D|---------------------------------------|
G|-------0-------------------------------|
B|-----2---4-----------------------------|
E|-0-2-----------------------------------|


A/C#               Em
Ao som de um bolero

E|---------------------------------------|
A|---------------------------------------|
D|---------------------------------------|
G|-------0-------------------------------|
B|-----2---4-----------------------------|
E|-0-2-----------------------------------|


A/C#      Em
Dose dupla

E|---------------------------------------|
A|---------------------------------------|
D|---------------------------------------|
G|-------0-------------------------------|
B|-----2---4-----------------------------|
E|-0-2-----------------------------------|


A/C#          Em
Românticos de Cuba Libre

E|---------------------------------------|
A|---------------------------------------|
D|---------------------------------------|
G|-------0------2------------------------|
B|-----2---4--5--------------------------|
E|-0-2-----------------------------------|


A/C#      Em
Misto quente

E|---------------------------------------|
A|---------------------------------------|
D|---------------------------------------|
G|-------0-------------------------------|
B|-----2---4-----------------------------|
E|-0-2-----------------------------------|


A/C#            F#11 F#7
Sanduíche de gente
                          (Repete mais 1 vez do começo)



Solo:

       Bm                             F#m7
E|-------------------------------------------|
A|-------3--------2-3--2------------2--------|
D|-----4---4-4-4---------4----2-----2--------|
G|---4----------------------4---2---2--------|
B|-2------------------------------2----------|
E|-------------------------------------------|

        B7/9-    Em     Em9
E|-------------------------------------------|
A|----1-0------0-----0-----------------------|
D|---2----2----0-----0-----------------------|
G|--1-------1--4-4---2-----------------------|
B|-------------2---2-2-----------------------|
E|-2-----------------------------------------|

       G#m7(b5)         C#7(9+)        F#11  F#7
E|-------------------------------------------|
A|-0-0-2-3-----3-----2-5-----5-----4-3-----2-|
D|-------4-----4-----4-4-----4-----4-3-----3-|
G|-------4-4---4-4---4-3-3---3-3---3-2-2---2-|
B|---------------------4---4-4---4-4---------|
E|-------4---4-4---4-4---------------2---2-2-|

E|-------------------------------------------|
A|--5-4-3-2----------------------------------|
D|----------3--------------------------------|
G|------------4------------------------------|
B|-------------------------------------------|  (2x)
E|-------------------------------------------|
                                                

Repete refrão e depois introdução para finalizar
Acordes para:
    Composição: Rita LeeColaboração e revisão:

    0 comentários

      mostrar mais comentários

      Conseguiu tocar?

      0tocaram0ainda não

      Grave um vídeo tocando Caso Sério e mande pra gente!

      00:00 / 00:00
      outros vídeos desta música
      repetirqualidadeautomática
      Outro vídeos desta música
        00:00 / 00:00
        automática
        OK