Cifra Club

Meio Fio

Rita Lee

Cifra: Principal (violão e guitarra)
Tom: E
  [Intro:] F#m B      G#m C#m   F#m   B   A G#m F#m E
E|----------4--2-----------2--------------------------------------
B|-5-4------------5-4--------5-4h5--5-4---------------------------
G|-----4-2------------4-1---------------4-2-1-2-4-1---------------
D|--------------------------------------------------4--2-1-4-2-2--
A|----------------------------------------------------------------
E|----------------------------------------------------------------

E                C#m         A            B
Onde quer que eu vá levo em mim o meu passado
E        C#m           A    B
E tanto quanto do meu fim
E           C#m           A    B
Todos os instantes que vivi estão aqui
E         C#m                 A     B
Os que me lembro e os que esqueci
      E      C#m            A        B
Lá uuuuuuuuuuuuuh  uhh uhh  uhh uhh
      E      C#m            A        B
Lá uuuuuuuuuuuuuh  uhh uhh  uhh uhh
    E         C#m         A              B
Carrego minha morte e o que da sorte eu fiz
   E         C#m         A    B
O corte e também a cicatriz


     A           B
Mas sigo meu destino
    C#m   C#m7M C#m7 C#m7/B
Num yellow submarino
F#7(4)           F#7
Acendo a luz que me conduz
    B7(4)              B7
E os deuses me convidam...

        F#m B       G#m C#m
Para dançar no meio fio
F#m          B             A    G#m F#m E
Entre o que tenho e o que tenho que perder
            F#m   B    G#7(4) G#7  C#m
Pois se sou só eu só flutuando no vazio
   F#m          B7          D B7(4) B7
Voltando voz ao ar que receber


  [Intro:] F#m B      G#m C#m   F#m   B   A G#m F#m E
E|----------4--2-----------2--------------------------------------
B|-5-4------------5-4--------5-4h5--5-4---------------------------
G|-----4-2------------4-1---------------4-2-1-2-4-1---------------
D|--------------------------------------------------4--2-1-4-2-2--
A|----------------------------------------------------------------
E|----------------------------------------------------------------


E          C#m           A            B
Pra ficar comigo corro, salto, me equilibro
E           C#m          A     B
Entre minha neta e minha vó
E            C#m          A        B
Fico firme e sigo adiante ante o perigo
E              C#m          A    B
Vejo o que me aflinge virar pó
      E      C#m            A        B
Lá uuuuuuuuuuuuuh  uhh uhh  uhh uhh
      E      C#m            A        B
Lá uuuuuuuuuuuuuh  uhh uhh  uhh uhh
E           C#m              A             B
Às vezes acredito em mim, às vezes não acredito
   E              C#m      A     B
Também não sei se devo duvidar


     A           B
Mas sigo meu destino
    C#m   C#m7M C#m7 C#m7/B
Num yellow submarino
F#7(4)           F#7
Acendo a luz que me conduz
    B7(4)              B7
E os deuses me convidam...

        F#m B       G#m C#m
Para dançar no meio fio
F#m          B             A    G#m F#m E
Entre o que tenho e o que tenho que perder
            F#m   B    G#7(4) G#7  C#m
Pois se sou só eu só flutuando no vazio
   F#m          B7          D  B7(4) B7   E
Voltando voz ao ar que receber
exibições 14.273
Acordes para:
    Composição: Arnaldo Antunes / Roberto de Carvalho Colaboração e revisão:
    • Rodrigo Castro
    • Sid Ferreira

    0 comentários

    mostrar mais comentários

    Conseguiu tocar?

    1 tocaram 0 ainda não

    Grave um vídeo tocando Meio Fio e mande pra gente!

    00:00 / 00:00
    outros vídeos desta música
    repetir qualidade Automático
    Outros vídeos desta música
    00:00 / 00:00
    Automático
    OK