Cifra Club

Advertising Space

Robbie Williams

Cifra: Versão 2 (violão e guitarra)
tom: C
Intro: violão
       C                                        Em
e|-------------------------------------------------------------------------------|
b|-------8-------8------8------8------8---------8-----8----8----8----8-----------|
g|---------9-------9------9------9------9---------9-----9----9----9----9---------|
d|-----------10------10-----10-----10-----10--------9-----9----9----9----9-------|3x
a|-------------------------------------------------------------------------------|
e|-------------------------------------------------------------------------------|

baixo ( tocado na intro e durante a musica )
g|---------------------------------------------------------------------|
d|---------------------------------------------------------------------|
a|---------------------------------------------------------------------|
e|---7-8-7--3----------------------------------------------------------|
C
There's no earthly way of knowing
         G
what was in you heart when it stopped going
    F                                       C           G
the whole world shook the storm was blowing through you
C
Waiting for God to stop this
    G
and up to your neck in darkness
F                       C             G
everyone around you was corrupted say something

Am                   Em                                Dm
Theres no dignity in death to sell the world your last breath
                            F
they're still fighting over everything you left oh

Chorus:
C                         Em
I saw you standing at the gates 
                          Am
when marlon brando passed away
             G               F
you had that look upon your face 
advertising space and
C                           Em
No one learned from your mistakes 
                         Am
we let our profits go to waste 
           G             F
all that's left in any case
is advertising space oh
Verse:
C
Through your eyes the world was burning 
G
please be gentle i'm still learning
    F                                 C   G
you seem to say that you kept turning up
C
they poisoned you with compromise
G
at what point did you realize
F                             C      G
everybody loves your life but you oh oh

Am                    Em
special agent for the man 
                      Dm
through watergate and veatnam
                     F
No one really gave a dam 
do ya think the CIA did

Chorus:
C                         Em
I saw you standing at the gates
                         Am
when marlon brando passed away
             G               F
you had that look upon your face
advertising space and
C                        Em
No one learned from your mistakes
                         Am
we let our profits go to waste 
          G             F
all thats left in any case
is advertising space oh
Bridge:
        C                                      Em 
e|-------------------------------------------------------------------------------|
b|-------8-------8------8------8------8---------8-----8----8----8----8-----------|
g|---------9-------9------9------9------9---------9-----9----9----9----9---------|
d|-----------10------10-----10-----10-----10--------9-----9----9----9----9-------|3x
a|-------------------------------------------------------------------------------|
e|-------------------------------------------------------------------------------|

 Am G F

Chorus:
C                        Em
No one learned from your mistakes 
                         Am
we let our profits go to waste
          G             F
all these left in any case
is advertising space oh
C                                Em
i've seen your daughter man shes cute 
                          Am
i was scared but i wanted to
        G               F
boy she looks alot like you.
Composição de Robbie Williams / Stephen Duffy
Colaboração e revisão:
  • eder jr
4.145 exibições
    • ½ Tom
    • A
    • Bb
    • B
    • C
    • Db
    • D
    • Eb
    • E
    • F
    • F#
    • G
    • Ab
  • Adicionar à lista

    0 comentários

    Ver todos os comentários

    Conseguiu tocar?

    0 Tocaram 0 Ainda não

    Grave um vídeo tocando Advertising Space e nos envie!

    00:00 / 00:00
    Outros vídeos desta música
    Repetir Qualidade Automático
    Outros vídeos desta música
    00:00 / 00:00
    Automático

    Cifra Club Pro

    Aproveite o Cifra Club com benefícios exclusivos e sem anúncios
    Cifra Club Pro
    Aproveite o Cifra Club com benefícios exclusivos e sem anúncios
    OK