Cifra Club

Ser Mejor

Robbie Williams

Cifra: Principal (violão e guitarra)
tom: Bm
intro:

       F#         F#4
E|----2---2---2-----2---2---2-----2---2---2-----------|
B|-------2---2---------2---2---------2---2------------|
G|--3---3---3-----4---4---4-----3---3---3---4---------|
D|-4-------------4-------------4----------------------|
A|----------------------------------------------------|
E|----------------------------------------------------|


    F#             D#m
Llename la vida, dame tranquilidad
          G#m                      C#
Calma el temporal, que hay en mi piel.

           F#        D#m
Dame primaveras para disfrutar
       G#m                        C#
Días que se van y no han de volver.

      G#m          C#
Puede ser que la voz
      F#       D#m
De tu paz y el amor
      G#m          C#
Me ayuden a cambiar
                  F#
Y me hagan ser mejor.


    F#         F#4
E|----2---2---2----|
B|-------2---2-----|
G|--3---3---3------|
D|-4-------------4-|
A|-----------------|
E|-----------------|

               F#                D#m
Perdona mis manías, no doy para mas
        G#m                   C#
No se aparentar, Soy como soy
              F#          D#m
Ángel de la guarda, ven y sálvame
           G#m            C#
Sálvame del mal, ayúdame

      G#m           C#
Puede ser que la voz
      F#     D#m
De tu paz y el amor
       G#m         C#
Me ayuden a cambiar
                  F#
Y me hagan ser mejor.

 A                        F#m            C#m
Siempre hay en la vida oportunidad para amar mejor
            F#m
No hay que amar de más
  A                    F#m       G#m         C#
Muchos han caído de tanto dar y de tanto amar .


F#             D#m
Llename la vida, dame tranquilidad
          G#m                       C#
Calma el temporal, que hay en mi piel.

           F#        D#m
Dame primaveras para disfrutar
       G#m                        C#
Días que se van y no han de volver.

      G#m          C#
Puede ser que la voz
      F#       D#m
De tu paz y el amor
      G#m          C#
Me ayuden a cambiar
                  F#     F#  B  F#  B F#
Y me hagan ser mejor.


E|----2---2---2-----2---2---2-----2---2---2-----------|
B|-------2---2---------2---2---------2---2------------|
G|--3---3---3-----4---4---4-----3---3---3---4---------|
D|-4-------------4-------------4----------------------|
A|----------------------------------------------------|
E|----------------------------------------------------|




   F#4
E   2
A   4
D   4
G   4
B   2
E   2
00:00 / 00:00
Outros vídeos desta música
Repetir
Outros vídeos desta música
Composição de Robbie Williams
19 exibições
    • ½ Tom
    • Am
    • Bbm
    • Bm
    • Cm
    • C#m
    • Dm
    • Ebm
    • Em
    • Fm
    • F#m
    • Gm
    • G#m
  • Adicionar à lista

    0 comentários

    Ver todos os comentários

    Conseguiu tocar?

    0 Tocaram 0 Ainda não

    Grave um vídeo tocando Ser Mejor e nos envie!

    Entre para oCifra Club PRO

    Tenha acesso a benefícios exclusivos no App e no Site

    • Chega de anúncios

    • Prioridade de compra em lançamentos

    • Mais recursos no app do Afinador

    • Atendimento Prioritário

    • Descontos nos produtos Cifra Club

    • Ajude a produzir mais conteúdo

    00:00 / 00:00

    Cifra Club Pro

    Aproveite o Cifra Club com benefícios exclusivos e sem anúncios
    Cifra Club Pro
    Aproveite o Cifra Club com benefícios exclusivos e sem anúncios
    OK