Cifra Club

Long Long Ago

Marty Robbins

Cifra: Principal (violão e guitarra)
Selo Cifra Club: esta cifra foi revisada para atender aos critérios oficiais da nossa Equipe de Qualidade.
tom: C
E|-3a-3-----3--1--p0---|-----------0--0--------|-------------------------|---------------------|
B|-1a------------------|-3------------------3--|-1-----------------------|---------------------|
G|-0a------------------|--------0--------------|--------0h2-p0-----------|--------0-----0------|
D|-------2---------2---|-----0-----------0-----|-----2----------3--2-p0--|-----2-----------2---|
A|-3a----------3-------|-----------2-----------|-3-----------3-----------|-3---------3---------|
E|---------------------|-3---------------------|-------------------------|---------------------|


[Verse-Part1-KeyC]  (2x)
   C      +                   +                   +                     +            G      +
E|-------------------|-0---------0--h1---|-3---------5-----\3--|-0-----------------|-3---------1--p0---|
B|-1---------1--h3---|-------------------|---------------------|-------------------|-------------------|
G|--------0----------|--------0----------|--------0------------|--------0----------|--------0----------|
D|-----2---------2---|-----2---------2---|-----2---------0-----|-----2---------2---|-----0---------0---|
A|-3-----------------|-3-----------------|-3---------3---------|-3-----------------|-----------2-------|
E|-----------3-------|-----------3-------|---------------------|-----------3-------|-3-----------------|

  /----------------------1st pass---------------------\ /------------------2nd pass-------------------------\
   G     +                 +           C     +           G     +           C     +                 +
E|-----------------|-1--------0------|-----------------|----------0------|-----------------|-----------------|
B|-3---------------|--------------3--|-1---------------|-3------------3--|-1---------------|-----------------|
G|-------0---------|-------0---------|-------0---------|-------0---------|-------0---------|-------0---------|
D|-----0--------0--|-----0--------0--|-----2--------2--|-----0--------0--|-----2--------2--|-----2--------2--|
A|----------2------|----------2------|-3---------------|----------2------|-3---------------|-3---------------|
E|-3---------------|-3---------------|----------3------|-3---------------|----------3------|----------3------|

[Verse-Part2-KeyC]  (2x)
   G        +                                              +               C        +
E|-3a-----------1---p0----|---------------------|-1a-----------0---------|------------------------|
B|-0a---------------------|-3-------------------|-0a----------------3----|-1----------------------|
G|-0a-------0-------------|-----------0----0----|-0a-------0-------------|----------0-------------|
D|------0------------0----|------0---------0----|------0------------0----|------2------------2----|
A|--------------2---------|-----------2---------|--------------2---------|-3----------------------|
E|-3a---------------------|-3-------------------|-3a---------------------|--------------3---------|

[Verse-Part3-KeyC]  ... same as Verse-Part1-KeyC 2nd pass ... 


[Verse-Part1-KeyG]  (2x)
                            +                   +                     +                   +
E|-----------------|-------------------|-----------0---------|-------------------|-------------------|
B|-----------------|-0---------0--h1---|-3----------------3--| p0-----------------|-3---------1--p0---|
G|-0-------0--h2---|--------0----------|--------0------------|--------0----------|--------2----------|
D|-----0-------0---|-----0---------0---|-----0---------0-----|-----0---------0---|-----0---------0---|
A|-----------------|-2---------2-------|-----------2---------|-----------2-------|-0---------0-------|
E|-3-------3-------|-------------------|-3-------------------|-3-----------------|-------------------|

  /----------------------1st pass-------------------\ /------------------2nd pass------------------------\
                          +                                                   +                 +
E|----------------|-----------------|----------------|----------------|-----------------|-----------------|
B|----------------|-1--------0------|----------------|---------0------|-----------------|-----------------|
G|-2--------------|-------2------2--|-0--------------|-2-----------2--|-0-----0---------|-------0---------|
D|-----0-------0--|-----0--------0--|-----0-------0--|-----0-------0--|-----0--------0--|-----0--------0--|
A|---------0------|-0--------0------|---------2------|---------0------|----------2------|----------2------|
E|-2--------------|-----------------|-3--------------|-2--------------|-3---------------|-3---------------|

[Verse-Part2-KeyG]  (2x)
            +                                              +                        +
E|------------------------|---------------------|------------------------|------------------------|
B|-3a-----------1---p0----|---------------------|-1a-----------0---------|------------------------|
G|-2a-------2-------------|-2-------------------|-2a-------2--------2----|-0--------0-------------|
D|------0------------0----|-----------0----0----|------0------------0----|------0------------0----|
A|-0a-----------0---------|------0--------------|--------------0---------|--------------2---------|
E|------------------------|-2-------------------|-2a---------------------|-3----------------------|

[Verse-Part3-KeyG]  ... same as Verse-Part1-KeyGC 2nd pass ... 

[Lyrics]
Tell me the tales that to me were so dear
Long, long ago, long, long ago
Sing me the songs I delight in to hear
Long, long ago, long ago

Now you are come all my fears are removed
Let me forget for how long you have grown
Let me believe that you love as you loved
Long, long ago, long ago

Do you remember the past where we met
Long, long ago, long, long ago
Ah yes, you told me you'd never forget
Long, long ago, long ago

Then, to all others, my smile you preferred
Love, when you spoke, gave a charm to each word
Still my heart treasures the praises I heard
Long, long ago, long ago
Outros vídeos desta música
    11 exibições
      • ½ Tom
      • A
      • Bb
      • B
      • C
      • Db
      • D
      • Eb
      • E
      • F
      • F#
      • G
      • Ab
    • Adicionar à lista

    Afinação da cifra

    Afinador online

      0 comentários

      Ver todos os comentários

      Entre para o Cifra Club PRO

      Tenha acesso a benefícios exclusivos no App e no Site

      • Chega de anúncios

      • Badges exclusivas

      • Mais recursos no app do Afinador

      • Atendimento Prioritário

      • Aumente seu limite de lista

      • Ajude a produzir mais conteúdo

      Cifra Club Pro

      Aproveite o Cifra Club com benefícios exclusivos e sem anúncios
      Cifra Club Pro
      Aproveite o Cifra Club com benefícios exclusivos e sem anúncios
      Ops (: Contenido disponible sólo en portugués.
      OK