Cifra Club

Samba de Um Minuto

Roberta Sá

Cifra: Principal
exibições 44.568
Tom: A# (com acordes na forma de C) Afinação: D G C F A D
E|------------------------------|4
B|----5--5---5------5-----5--5--|V
G|----5--5---5------7-----7--7--|E
D|----5--5---5------6-----6--6--|Z
A|------------------------------|E
E|--5-----8----8-7----7-0-------|S

E|----------------------------3--------|
B|--5---5-------------------5----5-----|
G|--5---5-----------------5---------5--|
D|--5---5---2p0---------3--------------|
A|--------------3-2-0------------------|
E|-----5--------------4----------------|



Am                             Dm6
       Devagar, esquece o tempo lá de fora
Bm7(b5)
       Devagar,

E|------------------1--1--|
B|------------------1--1--|
G|------------------2--2--|
D|------------------------|
A|--3-4-3-2-0-------------|
E|------------3-2-1-------|

F         E7           Am7
esqueça a rima que for cara

E|--------------3--3--|
B|--------------3--3--|
G|--------------4--4--|
D|--------------------|
A|--------------------|
E|--0--1--2--3--------|

G7                     C6
Escute o que vou lhe dizer


E|-----------------|
B|-----------------|
G|-----------------|
D|--2p0------------|
A|------3-2-0------|
E|------------4-3--|


G7                   C6 C#º
Um minuto de sua atenção
          Dm7              E7(b9)
Com minha dor não se brinca
             Am   A/C#
Já disse que não
   A/G    Dm7              E7(b9)
Com minha dor não se brinca
             Am
Já disse que não

E|------------------3------|
B|----------------5---5----|
G|--------------5-------5--|
D|------------3------------|
A|--3-2-1-0----------------|
E|----------4--------------|

     Am7
Devagar,
                 G7
Devagar com o andor
               F7(9)
Teu santo é de barro
            E7
E a fonte secou
Dm6    E7(b9)        Am
Já não tens tanta verdade pra dizer
F7(9) F/Eb         E7                E7 F7 F#7
Nem tampouco mais maldade pra fazer
G7                 C6
E se a dor é de saudade
Bm7(b5) E7(b9)         Am  A7
E a sau - dade é de matar

E|---------------------------|
B|---------------------------|
G|---------------------------|
D|-------------6-5-----------|
A|--------7-10-----10-8-7-5--|
E|--7-8-9--------------------|


Dm7    Dm/C      Bm7(b5) E7(b9)  Am7     Am/G
           Em meu peito a no - vidade
F7(9) E7(b9)      Am
Vai enfim me libertar

E|------------------3------|
B|----------------5---5----|
G|--------------5-------5--|
D|------------3------------|
A|--3-2-1-0----------------|
E|----------4--------------|
Acordes para:
    Composição: Rodrigo MaranhãoColaboração e revisão:
    • Magnum Costa
    • Thaianna Barbosa
    • Arthur Gomes

    0 comentários

      mostrar mais comentários

      Conseguiu tocar?

      1tocaram0ainda não

      Grave um vídeo tocando Samba de Um Minuto e mande pra gente!

      00:00 / 00:00
      outros vídeos desta música
      repetirqualidadeautomática
      Outro vídeos desta música
        00:00 / 00:00
        automática
        OK