Cifra Club

la mano de dios

Rodrigo Bueno

Cifra: Principal (violão e guitarra)
tom: Em
Em
En una villa nació
Fue deseo de dios
                 Am
Crecer y sobrevivir
A una humilde expresión
                     D7
De enfrentar la adversidad
Con afán de ganarse
                 B7
A cada paso la vida
                Em
En un potrero forjo
Una zurda inmortal
                    Am
Con experiencia, sedienta
Ambición de llegar
                D7
De cebollita soñaba
Jugar un mundial
                     G
Y consagrarse en primera
Am         B7          Em
Tal vez jugando pudiera
C              B7
A su familia ayudar

Punteo
             Em                              Am
E|----0-2-3-2-0-3----------------------0-2-3-2-0-8------------------|
B|--0--------------------------------0-----------------0-1--1-0-----|
G|--------------------0--0---------------------------2-----------2--|
D|----------------2-4------4-2--------------------------------------|
A|------------------------------------------------------------------|
E|------------------------------------------------------------------|

            D7                                    B7
E|--0-5-7-8-7-5--10--------------------------10-10--8--10-8--5-7----|
B|-------------------------0-1-1-0----------------------------------|
G|-----------------------2---------2--------------------------------|
D|------------------------------------------------------------------|
A|------------------------------------------------------------------|
E|------------------------------------------------------------------|

          Em                           Am
E|---[14-12-14-12-14-12-14]x2----14--12-----------------------------|
B|---------------------------------------[13-12-13-12-13]x2---------|
G|------------------------------------------------------------------|
D|------------------------------------------------------------------|
A|------------------------------------------------------------------|
E|------------------------------------------------------------------|

        D7                              B7
E|------------------------------------------------------------------|
B|---13-12-15-13-15-13-15---15-13-15-13-15-----0-1-0---0---0-1-0---0|
G|---------------------------------------------------3-----------3--|
D|------------------------------------------------------------------|
A|------------------------------------------------------------------|
E|------------------------------------------------------------------|

(Vuelve a empezar con ritmo de cuarteto)


              G
A poco que debuto
Maradó, Maradó
                      D
La doce fue quien coreo
Maradó, Maradó
                         C
Su sueño tenia una estrella
                      B7
Llena de gol y gambetas
                    G
Y todo el pueblo canto
Maradó, Maradó
                   D
Nacía la mano de dios
                         C
Sembró alegría en el pueblo
                        Em
Lleno de gloria este suelo

Em
Cargo una cruz en los hombros
Por ser el mejor
                   Am 
Por no venderse jamás
Al poder enfrento
               D7 
Curiosa debilidad
Si Jesús tropezó
                            B7
¿Por qué el no habría de hacerlo?
                Em
La fama le presento
Una blanca mujer
              Am
De misterioso sabor
Y de prohibido placer
                        D7
Que lo hizo adicto al deseo
De usarla otra vez
                G
Involucrando su vida
Am         B7           Em
Y es un partido que hoy día
C                 B7
El Diego esta por ganar

               G
A poco que debuto
Maradó, Maradó
                      D
La doce fue quien coreo
Maradó, Maradó
                         C
Su sueño tenia una estrella
                      B7
Llena de gol y gambetas
                    G
Y todo el pueblo canto
Maradó, Maradó
                   D
Nacía la mano de dios
                         C
Sembró alegría en el pueblo
                        Em
Lleno de gloria este suelo
00:00 / 00:00
Outros vídeos desta música
Repetir
Outros vídeos desta música
Composição de Alejandro Romero
Colaboração e revisão:
  • Galileo Riccio
11.821 exibições
    • ½ Tom
    • Am
    • Bbm
    • Bm
    • Cm
    • C#m
    • Dm
    • Ebm
    • Em
    • Fm
    • F#m
    • Gm
    • G#m
  • Adicionar à lista

    0 comentários

    Ver todos os comentários

    Conseguiu tocar?

    2 Tocaram 0 Ainda não

    Grave um vídeo tocando la mano de dios e nos envie!

    Toque também

    1. Imagem do artista Isaac Albeniz Asturias Isaac Albeniz
    2. Imagem do artista El Original Ella no duerme El Original
    3. Imagem do artista Fernando Sor Moderato In C Fernando Sor
    4. Imagem do artista Andres Segovia Estudio Remembranza Andres Segovia

    Entre para oCifra Club PRO

    Tenha acesso a benefícios exclusivos no App e no Site

    • Chega de anúncios

    • Prioridade de compra em lançamentos

    • Mais recursos no app do Afinador

    • Atendimento Prioritário

    • Descontos nos produtos Cifra Club

    • Ajude a produzir mais conteúdo

    00:00 / 00:00

    Cifra Club Pro

    Aproveite o Cifra Club com benefícios exclusivos e sem anúncios
    Cifra Club Pro
    Aproveite o Cifra Club com benefícios exclusivos e sem anúncios
    OK