Cifra Club

Mercenária

Rogerio Ferrari

Cifra: Principal (violão e guitarra)
tom: A
(intro) A

           E                 F#m
Essa mercenária só sabe pedir
                D                     A
Vive me criticando e me chama pra sair
                    E
Quando eu to com grana
                        F#m
Quando eu to com dinheiro
                     D         E                   A
Ela não pensa duas vezes e me chama o tempo inteiro

( A D A E C#m D C#m D C#m D E )

(solo)
E|--------------------------------------------|
B|--5-5-3-2-2h3-2--------------5-5-5-3-2-3h5--|
G|----------------4-2---2-4h6-----------------|
D|--------------------4-----------------------|
A|--------------------------------------------|
E|--------------------------------------------|

E|-------------------------------------------------------|
B|-5-5-5-3-2-2h3--5-5-5-3-2-2h3--5-5-5-3-2-2h3--2-3-3h5--|
G|-------------------------------------------------------|
D|-------------------------------------------------------|
A|-------------------------------------------------------|
E|-------------------------------------------------------|

A                 C#m
Ela só quer sair de carro
          D                         E
Gastando tudo que eu tenho olha que situação
A         C#m                   D
Essa mercenária é o Judas do futuro
                    E
Primeiro ganha seu amor
                  A
Depois te deixa duro
                 C#m           D
Cuidado pra não cair na lábia dela
                    E
Te enfeitiça, te engana e quer tudo pra ela

A              C#m                         D
Mercenária bandida lamento mais eu não te quero
               E
Não adianta jogar seu charme sedutor
A               C#m                   D
Me fazendo carinho e me chamando de amor
                    E
Nessa eu não caio mais
            A
Você rodou

(refrão)
           E                 F#m
Essa mercenária só sabe pedir
                D                     A
Vive me criticando e me chama pra sair
                    E
Quando eu to com grana
                        F#m
Quando eu to com dinheiro
                     D         E                   A
Ela não pensa duas vezes e me chama o tempo inteiro   (2x)

( A D A E C#m D C#m D C#m D E )

(solo)
E|--------------------------------------------|
B|--5-5-3-2-2h3-2--------------5-5-5-3-2-3h5--|
G|----------------4-2---2-4h6-----------------|
D|--------------------4-----------------------|
A|--------------------------------------------|
E|--------------------------------------------|

E|-------------------------------------------------------|
B|-5-5-5-3-2-2h3--5-5-5-3-2-2h3--5-5-5-3-2-2h3--2-3-3h5--|
G|-------------------------------------------------------|
D|-------------------------------------------------------|
A|-------------------------------------------------------|
E|-------------------------------------------------------|

A                 C#m
Ela só quer sair de carro
          D                         E
Gastando tudo que eu tenho olha que situação
A         C#m                   D
Essa mercenária é o Judas do futuro
                    E
Primeiro ganha seu amor
                  A
Depois te deixa duro
                 C#m           D
Cuidado pra não cair na lábia dela
                    E
Te enfeitiça, te engana e quer tudo pra ela

A              C#m                         D
Mercenária bandida lamento mais eu não te quero
               E
Não adianta jogar seu charme sedutor
A               C#m                   D
Me fazendo carinho e me chamando de amor
                    E
Nessa eu não caio mais
            A
Você rodou

(refrão 3x)
           E                 F#m
Essa mercenária só sabe pedir
                D                     A
Vive me criticando e me chama pra sair
                    E
Quando eu to com grana
                        F#m
Quando eu to com dinheiro
                     D         E                   A
Ela não pensa duas vezes e me chama o tempo inteiro
Composição de ROGERIO FERRARI / Xibá
Colaboração e revisão:
  • Tiago Kogut
  • Rafael Pereira
836 exibições
    • ½ Tom
    • A
    • Bb
    • B
    • C
    • Db
    • D
    • Eb
    • E
    • F
    • F#
    • G
    • Ab
  • Adicionar à lista

    0 comentários

    Ver todos os comentários

    Conseguiu tocar?

    0 Tocaram 0 Ainda não

    Grave um vídeo tocando Mercenária e nos envie!

    00:00 / 00:00
    Outros vídeos desta música
    Repetir Qualidade Automático
    Outros vídeos desta música
    00:00 / 00:00
    Automático

    Cifra Club Pro

    Aproveite o Cifra Club com benefícios exclusivos e sem anúncios
    Cifra Club Pro
    Aproveite o Cifra Club com benefícios exclusivos e sem anúncios
    OK