Notificações Amigos pendentes

      Rojo

      Me Amas Igual

      1.678 exibições
      Tom: A
      Hola a todos!! 
      Mmm aquí esta la canción de "rojo – me amas igual " 
      Que Dios les bendiga 
      
      Me amas igual 
      A pesar de mis errores 
      Me amas igual 
      Aunque no, no soy perfecto 
      Me amas igual 
      Y me abrazas otra vez 
      
                    C 
      Me amas igual 
      
      Aunque a veces pienso lento 
                    A 
      Me amas igual 
      
      Aunque sigo en el proceso 
                    F 
      Me amas igual 
            D 
      Y por eso te diré 
      
      :CORO: 
      
      
      G|--------------------------0------------- ¡ 
      D|--------------4--------------9-------2-- ¡(x2) 
      A|----2------55---5-----77---------33----3 ! 
      E|-33---3--------------------------------- ¡ 
      
      
      G|--------------------------0------------- ¡-------------------- ¡ 
      D|--------------4--------------9-------2-- ¡--------2--------2---¡ 
      A|----2------55---5-----77---------33----3 !---00—3------00-3--- ¡ 
      E|-33---3--------------------------------- ¡---------------------¡ 
      
      
      G|------------- ¡ 
      D|------------- ¡ 
      A|--5-5-5-5-5-- ! 
      E|------------- ¡ 
      
      
                      C 
      Me amas igual! 
      
      Aunque a veces dude mucho, 
                      A 
      Me amas igual! 
      
      Aunque a veces no te escucho, 
                      F 
      Me amas igual! 
           D 
      Sigues creyendo en mí 
      
      Me amas igual! 
      
      Y quiero ser tu reflejo, 
                      A A 
       Me amas igual! 
      
      Quiero darte mis secretos, 
      
      G|-------- ¡ 
      D|-------- ¡ 
      A|-------- ¡ 
      E|-13s5--- ¡ 
      
                     F 
      Me amas igual! 
             D 
      Y por eso te diré 
      
      :CORO: 
      
      :SOLO: 
      
      
      G|--------- ¡ 
      D|-2-2----- ¡(x2) 
      A|-----3-3- ¡ 
      E|--------- ¡ 
      
      
      :PUENTE: 
      
      E                      C 
      Me amas igual! 
      E               C 
      Me amas igual! 
                           E 
      Tú tienes La culpa de esta dicha 
                        C 
      De mi esperanza cada día 
                        E 
      Y cada mañana aL despertarme 
                       C 
      Voy a decidir siempre adorarte 
      
      :coro: 
      
      :FINAL: 
      
      
      G|------------------------------------------------------ ¡ 
      D|-5-5-5-5-5--------5-5-5-5-5--------5-5-5-5-5--------5- ¡ 
      A|-----------3-3-3------------3-3-3------------3-3-3---- ¡ 
      E|------------------------------------------------------ ¡
      

      Comentários 0

      140 .
      140 cancelar

      conseguiu tocar?

      covers

      Grave um vídeo tocando Me Amas Igual e mande pra gente!

      Ex.: http://www.youtube.com/watch?v=0IvSvIwGdwk
      ver covers de outras músicas »
      0:00 / 0:00

      Capítulos

        1 versão de violão dificuldade exibições contribuição e correção
        1 versão de guitarra dificuldade exibições contribuição e correção
        1 versão de cavaco dificuldade exibições contribuição e correção
        1 versão de teclado dificuldade exibições contribuição e correção
        play/pausefechar subir/descer velocidade
        6ª corda E5ª corda A4ª corda D3ª corda G2ª corda B1ª corda E
          acordes
          publicidade
          fechar
          ok