Cifra Club

Tardes De Outono

Rosa Tattooada

Cifra: Principal (violão e guitarra)
Selo Cifra Club: esta cifra foi revisada para atender aos critérios oficiais da nossa Equipe de Qualidade.
tom: B (forma dos acordes no tom de C) Afinação: Eb Ab Db Gb Bb Eb
Afinação: Eb

Introdução: Am G F (4x)

Am        G          F
    Outra vez voce se vai
                       Am
    Me deixando para tras
           G          F
    Outra vez voce se vai
Am        G           F
    Outra noite que se vai
                     Am
    E a dor aumenta mais
           G           F
    Outra noite que se vai


Refrão

C5               G5          A5
    Como folhas secas pelo chão
                F5        C5
    Nas frias tardes de outono
              G5           F5
    Veio o vento e te levou
C5               G5          A5
    Como folhas secas pelo chão
                F5        C5
    Nas frias tardes de outono
              G5           A5  (A5)
    Veio o vento e te levou
                       (F5, C5)
    E junto o meu coração
                    G5   G#5
    E o meu amor em vão
          (F5)
    Se quebrou
                       (F5, C5)
    E junto o meu coração
                    G5   G#5
    E o meu amor em vão
          A5     G5     F5
    Se quebrou


(Repete Intro)


Am        G          F
    Outra vez voce se vai
                       Am
    Sem nenhuma explicação
           G          F
    Outra vez voce se vai
Am        G          F
    Outra noite que se vai
                       Am
    Como essa triste canção
           G          F
    Outra noite que se vai


Refrão

C5               G5          A5
    Como folhas secas pelo chão
                F5        C5
    Nas frias tardes de outono
              G5           F5
    Veio o vento e te levou
C5               G5          A5
    Como folhas secas pelo chão
                F5        C5
    Nas frias tardes de outono
              G5           A5  (A5)
    Veio o vento e te levou
                       (F5, C5)
    E junto o meu coração
                    G5   G#5
    E o meu amor em vão
          (F5)
    Se quebrou
                       (F5, C5)
    E junto o meu coração
                    G5   G#5
    E o meu amor em vão
          A5     G5     F5
    Se quebrou


Solo  (Am  G  F)

C5               G5          A5
    Como folhas secas pelo chão
                F5        C5
    Nas frias tardes de outono
              G5           F5
    Veio o vento e te levou
C5               G5          A5
    Como folhas secas pelo chão
                F5        C5
    Nas frias tardes de outono
              G5           A5  (A5)
    Veio o vento e te levou
                       (F5, C5)
    E junto o meu coração
                    G5   G#5
    E o meu amor em vão
          (F5)
    Se quebrou
                       (F5, C5)
    E junto o meu coração
                    G5   G#5
    E o meu amor em vão
          A5
    Se quebrou
                        F5
    E junto o meu coração
C5                   G5  G#5 A5  (A5)
    E o meu amor em vão


Solos
sl  =  Slide
b   =  Bend
r   =  Reverse Bend

Riff 1  (Intro)
E|-------------------------------------|
B|-------------------------------------|
G|-------------------------------------|
D|--0-sl-2---2-sl-5--5---5-sl-7--7-----|
A|-------------------------------------|
E|-------------------------------------|

Riff 2  (Logo após o Refrão)
E|----------------------------------------------------------------------------------------|
B|----------------------------------------------------------------------------------------|
G|----------------------------------------------------------------------------------------|
D|-----------------------------------------------5--7-5--7----7-sl-9-9--9-sl-10-10-9-10---|
A|--0--0-sl-2-2---2-sl-3-------------------5--7-------------------------------------------|
E|-----------------------------------5--7-------------------------------------------------|

Solo
E|----------------------------------------------------------------------------------------|
B|----------------------------------------------------------------------------------------|
G|----------------------------------------------------------------------------------------|
D|-----------------------------------------------5--7-5--7----7-sl-9-9--9-sl-10-10-9-10---|
A|--0--0-sl-2-2---2-sl-3-------------------5--7-------------------------------------------|
E|-----------------------------------5--7-------------------------------------------------|

E|----------------------------------------------------------------------------------------|
B|----------------------------------------------------------------------------------------|
G|--9-7-5-7-5-4-5-4---9-7-5-7-5-4-5-4-----------------------------------------------------|
D|------------------5-----------------5-sl-6-6---5-sl-6-5---------------------------------|
A|----------------------------------------------------------------------------------------|
E|----------------------------------------------------------------------------------------|

E|-15b16-15b16-15-13---15b16--15b16-15-13--------15--------------15-----------------------|
B|------------------------------------------15b16--16r15-13--15b6--16r15-13---------------|
G|----------------------------------------------------------------------------------------|
D|----------------------------------------------------------------------------------------|
A|----------------------------------------------------------------------------------------|
E|----------------------------------------------------------------------------------------|
Outros vídeos desta música
    60.904 exibições
      • ½ Tom
      • A
      • Bb
      • B
      • C
      • Db
      • D
      • Eb
      • E
      • F
      • F#
      • G
      • Ab
    • Adicionar à lista

    Afinação da cifra

    Afinador online

      0 comentários

      Ver todos os comentários

      Entre para o Cifra Club PRO

      Tenha acesso a benefícios exclusivos no App e no Site

      • Chega de anúncios

      • Badges exclusivas

      • Mais recursos no app do Afinador

      • Atendimento Prioritário

      • Aumente seu limite de lista

      • Ajude a produzir mais conteúdo

      Cifra Club Pro

      Aproveite o Cifra Club com benefícios exclusivos e sem anúncios
      Cifra Club Pro
      Aproveite o Cifra Club com benefícios exclusivos e sem anúncios
      Ops (: Contenido disponible sólo en portugués.
      OK