Cifra Club

Escudo

Rose Nascimento

Cifra: Principal (violão e guitarra)
tom: E
[Intro] E  F#m  B  E

                 E                    F#m
Por toda minha vida, Ó Senhor te louvarei
                       B                   E
Pois teu fôlego é minha vida, e nunca me cansarei
                                             F#m
Posso ouvir a sua voz, é mais doce do que o mel
                   B                    E
Que me tira desta cova, e me leva até o céu
                                            F#m
Já ví fogo e terremoto, vento forte que passou
                  B     F                  E
Já vivi tantos perigos, mas tua voz me acalmou
                                              F#m
Tú dás ordem as estrelas, e ao mar os seus limites
                   B    F                E
Eu me sinto tâo seguro, no teu colo Ó altíssimo
E            C#m         G#m              A     B
Não há ferrolhos, nem portas, que se fechem diante
           E           C#m          G#m     A
Da tua voz, não há doenças, nem culpas, que fiquem
   B              E            C#m           G#m
De pé diante de nós, e a tempestade, se acalma, na
 A              B         E              C#m     G#m
Voz daquele que tudo criou, pois sua palavra, é pura
   A           B           E
Escudo para os que nele crêem

[Solo] C#m  G#m  A  B  E
        C#m  G#m  A  B  E

E|-------------------------------------------------------------|
B|------9---------12--9----12--12--12--10--9--9--7--7--7----9--|
G|-9-11---11-9-9--------------------------------------9--------|
D|-------------------------------------------------------------|
A|-------------------------------------------------------------|
E|-------------------------------------------------------------|

E|----------16------------19--16--19-19--17-17--16--14/16--14--17--16----|
B|-9/17--19----19--17---19--------------------------------------------17-|
G|-----------------------------------------------------------------------|
D|-----------------------------------------------------------------------|
A|-----------------------------------------------------------------------|
E|-----------------------------------------------------------------------|
00:00 / 00:00
Outros vídeos desta música
Repetir
Outros vídeos desta música
Composição de Carlos A. Moysés
Colaboração e revisão:
  • David Matarolli
  • Alex Bragança
12.329 exibições
    • ½ Tom
    • A
    • Bb
    • B
    • C
    • Db
    • D
    • Eb
    • E
    • F
    • F#
    • G
    • Ab
  • Adicionar à lista

    0 comentários

    Ver todos os comentários

    Entre para oCifra Club PRO

    Tenha acesso a benefícios exclusivos no App e no Site

    • Chega de anúncios

    • Prioridade de compra em lançamentos

    • Mais recursos no app do Afinador

    • Atendimento Prioritário

    • Descontos nos produtos Cifra Club

    • Ajude a produzir mais conteúdo

    00:00 / 00:00

    Cifra Club Pro

    Aproveite o Cifra Club com benefícios exclusivos e sem anúncios
    Cifra Club Pro
    Aproveite o Cifra Club com benefícios exclusivos e sem anúncios
    OK